As I Lay Dying - Darkest Nights Chords & Tabs

 

Darkest Nights Chords & Tabs

As I Lay Dying Chords & Tabs

Version: 2 Type: Tab 0 ratings
1 star 2 stars 3 stars 4 stars 5 stars
comments

Darkest Nights Tab

~As I lay dying~
~Darkest Nights~
Tabbed by Simonaldo
If you have any corrections or comments :I_Love_Clerasil@yahoo.de
Drop tuning C


Intro (both guitars)
|-----------------------------------|
|-----------------------------------|
|7p0----10-9--7p0-7----7-10p0-9p0---|  3x
|----10-------------10--------------|
|-----------------------------------|
|-----------------------------------|

|------------------------------------|
|-------------------------13---------|
|7p0----10-9--7p0-10-9-10----10-9----|
|----10---------------------------10-|
|------------------------------------|
|------------------------------------|


Verse 1st guitar
|----------------------------------------|
|----------------------------------------|
|--------------------------------2-2-0---|
|--0-0-3-0---3-3-2-----0-0-3-0---------2-|
|------------------3---------------------|
|0---------0---------0---------0---------|

2nd guitar
|---------------------------------------|
|---------------------------------------|
|---------------------------------------|
|0--------------------0-0-0----8--10-7--|
|0--------------------0-0-0----8--10-7--|
|0--------------------0-0-0----8--10-7--|

Both guitars
|-------------------------------------------|
|-------------------------------------------|
|--------------------------------2-2-0------|
|--0-0-3-0---3-3-2-----0-0-3-0---------2----|   4x
|------------------3------------------------|
|0---------0---------0---------0------------|

Both guitars
|-----------------------------------------------------------|
|-----------------------------------------------------------|
|-------------------------------------------------0---------| 2x
|0-0--3-0-2-0---3-3--3-0-2-0---5-5--3-0-2-0---3-3-----3--2--|
|0-0----------3-3-3----------3-5-5----------3-1-1---1---1---|
|0-0------------3-3------------5-5--------------------------|
pm .    .   .     .    .   .     .    .   .     .   .   .

both guitars
|-----------------------------------------|
|-----------------------------------------|
|----------------------------2------------|
|--3-2-----3-2-----5-3-2-3-5---5-3-2h3p2--| 2x
|------3-0-----3-1------------------------|
|0----------------------------------------|

1st guitar
|-----------------------------------------|
|-----------------------------------------|
|----------------------------2------------|
|--3-2-----3-2-----5-3-2-3-5---5-3-2h3p2--| 2x
|------3-0-----3-1------------------------|
|0----------------------------------------|
[ Tab from: http://www.guitartabs.cc/tabs/a/as_i_lay_dying/darkest_nights_tab_ver_2.html ]
2nd guitar
|-------------------------------------------------------------|
|-------------------------------------------------------------|
|7-7-7-7-7-7-9-9-9-9-9-9-10-10-10-10-10-10-12-12-12-12-12-12--|
|x-x-x-x-x-x-x-x-x-x-x-x-x--x--x--x--x--x--x--x--x--x--x--x---| 2x
|5-5-5-5-5-5-7-7-7-7-7-7-8--8--8--8--8--8--10-10-10-10-10-10--|
|-------------------------------------------------------------|

both guitars
|-----------------------------------|
|-----------------------------------|
|7p0----10-9--7p0-7----7-10p0-9p0---|  3x
|----10-------------10--------------|
|-----------------------------------|
|-----------------------------------|

|------------------------------------|
|-------------------------13---------|
|7p0----10-9--7p0-10-9-10----10-9----|
|----10---------------------------10-|
|------------------------------------|
|------------------------------------|


Both guitars
|-------------------------------------------|
|-------------------------------------------|
|--------------------------------2-2-0------|
|--0-0-3-0---3-3-2-----0-0-3-0---------2----|   4x
|------------------3------------------------|
|0---------0---------0---------0------------|

Both guitars
|-----------------------------------------------------------|
|-----------------------------------------------------------|
|-------------------------------------------------0---------| 2x
|0-0--3-0-2-0---3-3--3-0-2-0---5-5--3-0-2-0---3-3-----3--2--|
|0-0----------3-3-3----------3-5-5----------3-1-1---1---1---|
|0-0------------3-3------------5-5--------------------------|
pm .    .   .     .    .   .     .    .   .     .   .   .

both guitars
|-----------------------------------------|
|-----------------------------------------|
|----------------------------2------------|
|--3-2-----3-2-----5-3-2-3-5---5-3-2h3p2--| 2x
|------3-0-----3-1------------------------|
|0----------------------------------------|

1st guitar
|-----------------------------------------|
|-----------------------------------------|
|----------------------------2------------|
|--3-2-----3-2-----5-3-2-3-5---5-3-2h3p2--| 2x
|------3-0-----3-1------------------------|
|0----------------------------------------|

2nd guitar
|-------------------------------------------------------------|
|-------------------------------------------------------------|
|7-7-7-7-7-7-9-9-9-9-9-9-10-10-10-10-10-10-12-12-12-12-12-12--|
|x-x-x-x-x-x-x-x-x-x-x-x-x--x--x--x--x--x--x--x--x--x--x--x---| 2x
|5-5-5-5-5-5-7-7-7-7-7-7-8--8--8--8--8--8--10-10-10-10-10-10--|
|-------------------------------------------------------------|

both guitars
|-----------------------------------|
|-----------------------------------|
|7p0----10-9--7p0-7----7-10p0-9p0---|  3x
|----10-------------10--------------|
|-----------------------------------|
|-----------------------------------|

|------------------------------------|
|-------------------------13---------|
|7p0----10-9--7p0-10-9-10----10-9----|
|----10---------------------------10-|
|------------------------------------|
|------------------------------------|

it's a really good song I love it so enjoy it
Comments