As I Lay Dying - Darkest Nights Chords & Tabs

 

Darkest Nights Chords & Tabs

As I Lay Dying Chords & Tabs

Version: 1 Type: Bass Tab

Darkest Nights Bass Tab

   
----------------------------------------------------------------------------
			 Darkest Nights - As I Lay Dying
----------------------------------------------------------------------------

Tabbed By : no_0rdinance 
e-mail: no_0rdinance@hotmail.com

Tuning:CGCF

intro x4
F|-------------------------------------------------------------------------|
C|-------------------------------------------------------------------------|
G|1111111111111111---------------------------------------------------------|
C|----------------00000000-33333333----------------------------------------|

Break
F|-------------------------------------------------------------------------|
C|-------------------------------------------------------------------------|
G|1------------------------------------------------------------------------|
C|----5---8----------------------------------------------------------------|
[ Tab from: http://www.guitartabs.cc/tabs/a/as_i_lay_dying/darkest_nights_btab.html ]
Verse x8
F|-------------------------------------------------------------------------|
C|-------------------------------------------------------------------------|
G|-------------------------------------------------------------------------|
C|00-0-30--33-0-2-0--------------------------------------------------------|

Verse Part 2 x2
F|-------------------------------------------------------------------------|
C|-------------------------------------------------------------------------|
G|-------------------------------------------------------------------------|
C|0-0000000-3-3333333-5-5555555-8-8888888----------------------------------|

G|-------------------------------------------------------------------------|
D|------------------------------7------------------------------------------|
A|----8-7------8-7------10-87810-108-7h8p7---------------------------------|
E|0-0----10-7-7---10-8-8---------------------------------------------------|

Pre-Chorus x2
F|-------------------------------------------------------------------------|
C|-------------------------------------------------------------------------|
G|-------------------------------------------------------------------------|
C|00000000-22222222-33333333-55555555--------------------------------------|

Chorus repeat intro
Repeat rest of the song until its over
| /  slide up
| \  slide down
| h  hammer-on
| p  pull-off
| ~  vibrato
| +  harmonic
| x  Mute note
===============================================================================