As I Lay Dying - Confined Chords & Tabs

 

Confined Chords & Tabs

As I Lay Dying Chords & Tabs

Version: 3 Type: Tab 0 ratings
1 star 2 stars 3 stars 4 stars 5 stars
comments

Confined Tab

   
-------------------------------------------------------------------------------
        "Confined" - As I Lay Dying
-------------------------------------------------------------------------------
Tabbed by:
Email:Sg10guitar@aol.com

Tuning:CGCFAD
[ Tab from: http://www.guitartabs.cc/tabs/a/as_i_lay_dying/confined_tab_ver_3.html ]
e|-----------------------------------------------------|
B|-----------------------------------------------------|
G|-----------------------------------------------------|
D|-----------5-----------------------------------------|
A|---5-7---8 -8 7 3 5--Repeat 14x------------------3+--|
E|-00-0-000--------------------------------------------|
  on tenth time add a pinch harmonic at the end on ^ All zeros pm
e|--------------------------------------|
B|--------------------------------------|
G|--------------------------------------|
D|--------------5-----------------------|
A|------8 7------8----------------------|
E| 00000---00000---000 8 0 7 0 5 7 5 3--|
PLay this 4 times
e|---------------------------------------|
B|---------------------------------------|
G|---------------------------------------|
D|---------7-5---5-----------------------|
A|---5-7-8-----8---5 Repeat ? -----------|
E|00--0-0-0-0-0-0-0------------------3+--|
          on last one pinch harmonic ^
e|--------------------------------------------------------|
B|--------------------------------------------------------|
G|--------------------------------------------------------|
D|--------------------------------------------0 let ring--|
A|--------------------------------------------0-----------|
E|-00000 000-8 0 7 0 5 7 5 3 repeat 3x end on 0-----------|

| /  slide up
| \  slide down
| h  hammer-on
| p  pull-off
| ~  vibrato
| +  harmonic
| x  Mute note
===============================================================================
Comments