As I Lay Dying - 94 Hours Chords & Tabs

 

94 Hours Chords & Tabs

As I Lay Dying Chords & Tabs

Version: 2 Type: Tab 0 ratings
1 star 2 stars 3 stars 4 stars 5 stars
comments

94 Hours Tab

AS I LAY DYING
94 HOURS

Tuning Is: CGCFAD

GUITAR ONE
D|----------------------------------------------------------------|
A|----------------------------------------------------------------|
F|----------------------------------------------------------------|
C|----3p0-7p0-3p0-5p0-3p0-2h3p2--0~----3p0-7p0-3p0-5p0-3p0-555-0--| (x4)
G|-------------------------------0~------------------------333----|
C|-------------------------------0~-------------------------------|

GUITAR TWO
D|------------------------------------------------------------------|
A|------------------------------------------------------------------|
F|------------------------------------------------------------------|
C|--------7p0-----5p0----------------------7p0-----5p0--------------| (x4)
G|----8p0-----8p0-----8p0-7h8p7--5-----8p0-----8p0-----8p0-777-5----|
C|-0------------------------------------------------------777-5-----|

BOTH GUITARS
D|----------------------------------------------------------------|
A|----------------------------------------------------------------|
F|----------7p0-10p0-7p0-9p0-------------5------------------------|
C|-0-00-00---------------------0000-00---7------------------------| (x4)
G|-0-00-00---------------------0000-00------0---------------------|
C|-0-00-00---------------------0000-00------0---------------------|


D|------------------------------------------------------------------|
A|------------------------------------------------------------------|
F|------------------------------------------------------------------|
C|-0-00-00---0-00-00-0--/--0-00-00--0000-00-------------------------| (x7)
G|-0-00-00---0-00-00-0--/--0-00-00--0000-00-------------------------|
C|-0-00-00---0-00-00-0--/--0-00-00--0000-00-------------------------|

D|--------------------------|
A|--------------------------|
F|--------------------------|
C|0-00-00-0--0--0----------|
G|0-00-00-0--0--0----------|
C|0-00-00-0--0--0----------|
[ Tab from: http://www.guitartabs.cc/tabs/a/as_i_lay_dying/94_hours_tab_ver_2.html ]
GUITAR ONE
D|----------------------------------------------------------------|
A|----------------------------------------------------------------|
F|----------------------------------------------------------------|
C|----3p0-7p0-3p0-5p0-3p0-2h3p2--0~----3p0-7p0-3p0-5p0-3p0-555-0--| (x4)
G|-------------------------------0~------------------------333----|
C|-------------------------------0~-------------------------------|

GUITAR TWO
D|----------------------------------------------------------------|
A|----------------------------------------------------------------|
F|------------12-10-9---7--6--------------12-10-9---7--6----------|
C|-0-00-9-10---x-x--x---x--x--0-00--9-10---x-x--x---x--x----------| (x4)
G|-0-00-7-8---10-8--7---5--4--0-00--7-8---10-8--7---5--4----------|
C|-0-00-----------------------0-00--------------------------------|

GUITAR ONE

D|-------------------------------------------------------------------------|
A|-------------------------------------------------------------------------|
F|-12-10-9-10-9-------------12-10-9-10------------------9h10p9-------------|
C|-------------12-10-9(x1)-------------12-10-9-10-12-10------12-10-(x4)---|
G|-------------------------------------------------------------------------|
C|-------------------------------------------------------------------------|

GUITAR ONE
D|--------------------------------------------------------------------|
A|--------------------------------------------------------------------|
F|--10-9----12-10-9----12-------10-9----12-10-9--12-10-9----14-12-10-9|
C|-------10---------10-----(x2)------10------------------10-----------| (x5)
G|--------------------------------------------------------------------|
C|--------------------------------------------------------------------|

GUITAR TWO
D|---------------------------------------------------------------------------------------|
A|---------------------------------------------------------------------------------------|
F|---------------------------------------------------------------------------------------|
C|-0---0---10--9--5-----------------------------------------------| G|-0---0---8---7--3--|
C|-0---0---------------------------------------------------------------------------------|
Comments