As Blood Runs Black - Hester Prynne Chords & Tabs

 

Hester Prynne Chords & Tabs

As Blood Runs Black Chords & Tabs

Version: 6 Type: Tab

Hester Prynne Tab

It's a really fun song to play. This sounds 100% accurate to me so if somethings 
wrong feel free to show me.

Song: Hester Prynne
Artist: As Blood Runs Black
Album: Allegiance


|----------------------------------------------------------------|
|----------------------------------------------------------------|
|----------------------------------------------------------------| x2 -------|
|----------------------------------------------------------------|           |
|--------4h7p4--5h8p5--7h10p7--8h12p8--10h13p10--8h12p8--7h10p7--|           |
|--0--0----------------------------------------------------------|           |
   .  .                                                                      |
                                                                             |
|----------------------------------------------------------|                 |
|----------------------------------------------------------|                 |
|----------------------------------------------------------|                 |-- x3
|----------------------------------------------------------|                 |
|--------7h10p7-8h12p8--------7h10p7-8h12p8--------7h10p7--|                 |
|--8--8-----------------8--8-----------------8--8----------|                 |
   .  .                 .  .                 .  .                            |
                                                                             |
|-------------------------------------------------------------|              |
|-------------------------------------------------------------|              |
|-------------------------------------------------------------|              |
|-------------------------------------------------------------|--------------|
|----------7h10p7-8h12p8----------7h10p7-8h12p8-7h10p7-5h8p5--|
|--10--10-----------------10--10------------------------------|
   .   .                  .   .

|-----------------------------------------------------------------------|
|-----------------------------------------------------------------------|
|-----------------------------------------------------------------------| x6
|-----------------------------------------------------------------------|
|--5h8p5h8-----------5h8p5h8-----------4h7p4h7---------4h7p4h7----------|
|----------8h11p8h11---------8h11p8h11---------5h8p5h8---------5h8p5h8--|


|---------------------------------------------------|
|---------------------------------------------------|
|---------------------------------------------------| x3
|---------------------------------------------------|
|--000000000000000000000000000-0000-0000-0000-0000--|
|--000000000000000000000000000-0000-0000-0000-0000--|
   ........................... .... .... .... ....


|------------------------------------------------------|
|------------------------------------------------------|
|------------------------------------------------------|
|------------------------------------------------------|
|--000000000000000000000000000-0000-0000-0000-00015\\--|
|--000000000000000000000000000-0000-0000-0000-00015\\--|
   ........................... .... .... ...  ...
                                             |-3-|
|----------------------------------------------------------------------|
|----------------------------------------------------------------------|
|----------------------------------------------------------------------|
|------------------------------------------------------7---------------|
|------5---3h5---5-----3h5p3p0-----------8---7h8p7-------10-8-7-8-7-5--|
|--0-0---0-----0---0-0---------3p0---8-8---8-------8-8-----------------|
   . .   .     .   . .               . .   .       . .

|--------------------------------------------------------------------|
|--------------------------------------------------------------------|
|--------------------------------------------------------------------| x3
|----------------------------------------------------7---------------|
|------5---3h5---5-----3h5p3p0-----------8---7h8-------10-8-7-8-7-5--|
|--0-0---0-----0---0-0---------3p0---8-8---8-----8-8-----------------|
   . .   .     .   . .               . .   .     . .

                |-3-|                        |-3-|
|-----------------------------------------------------------|
|-----------------------------------------------------------|
|-------------------------------------------------------7*--|
|--------------------------3*-----------------------7-8-----|
|------5---3h5---------3h5----------8---7h8---888-8---------|
|--0-0---0-------555-5----------8-8---8---------------------|
   . .   .       ... .          . .   .       ... .

|------------------------------------------------------------------|
|------------------------------------------------------------------|
|------------------------------------------------------------------|
|------------------------------------------------------------------|
|------5---3h5-----5---8---5---3-------8---7h8-----8---10---8---7--|
|--0-0---0-----0-0---0---0---------8-8---8-----8-8---8----8--------|
   . .   .     . .   .   .         . .   .     . .   .    .
[ Tab from: http://www.guitartabs.cc/tabs/a/as_blood_runs_black/hester_prynne_tab_ver_6.html ]
|--------------------------------------------------------------------|
|--------------------------------------------------------------------|
|--------------------------------------------------------------------| x4
|----------------------------------------------------7---------------|
|------5---3h5---5-----3h5p3p0-----------8---7h8-------10-8-7-8-7-5--|
|--0-0---0-----0---0-0---------3p0---8-8---8-----8-8-----------------|
   . .   .     .   . .               . .   .     . .

|----------------------------------------------------------------|
|----------------------------------------------------------------|
|----------------------------------------------------------------| x2 -------|
|----------------------------------------------------------------|           |
|--------4h7p4--5h8p5--7h10p7--8h12p8--10h13p10--8h12p8--7h10p7--|           |
|--0--0----------------------------------------------------------|           |
   .  .                                                                      |
                                                                             |
|----------------------------------------------------------|                 |
|----------------------------------------------------------|                 |
|----------------------------------------------------------|                 |-- x2
|----------------------------------------------------------|                 |
|--------7h10p7-8h12p8--------7h10p7-8h12p8--------7h10p7--|                 |
|--8--8-----------------8--8-----------------8--8----------|                 |
   .  .                 .  .                 .  .                            |
                                                                             |
|-------------------------------------------------------------|              |
|-------------------------------------------------------------|              |
|-------------------------------------------------------------|              |
|-------------------------------------------------------------|--------------|
|----------7h10p7-8h12p8----------7h10p7-8h12p8-7h10p7-5h8p5--|
|--10--10-----------------10--10------------------------------|
   .   .                  .   .

|-----------------------------------------------------------------------|
|-----------------------------------------------------------------------|
|-----------------------------------------------------------------------|
|-----------------------------------------------------------------------|
|--0000---0-0000-0000-0000---0-5*^-----0000---0-0000-0000-0000---0-5*^--|
|--0000---0-0000-0000-0000---0---------0000---0-0000-0000-0000---0------|
   ....   . .... .... ....   .         ....   . .... .... ....   .

|-----------------------------------------------------------------------|
|-----------------------------------------------------------------------|
|-----------------------------------------------------------------------| x2
|-----------------------------------------------------------------------|
|--0000---0-0000-0000-0000---0-0-------0000---0-0000-0000-0000---0-5*^--|
|--0000---0-0000-0000-0000---0-0-------0000---0-0000-0000-0000---0------|
   ....   . .... .... ....   . .       ....   . .... .... ....   .

|--------------------------------------------------------------------------|
|--------------------------------------------------------------------------|
|--------------------------------------------------------------------------|
|--------------------------------------------------------------------------|
|--0000---0-0000-0000-0000---0-0-------0000---0-0000-0000-0000---0-0--\\\--|
|--0000---0-0000-0000-0000---0-0-------0000---0-0000-0000-0000---0-0--\\\--|
   ....   . .... .... ....   . .       ....   . .... .... ....   . .

|---------------------------------------------------------------------|
|---------------------------------------------------------------------|
|---------------------------------------------------------------------| x4
|---------------------------------------------------------------------|
|------8---5h8p5----------8---5h8p5----------8---5h8p5----------------|
|--0-0---0-------8----0-0---0-------7----0-0---0-------8---10--8--7*--|
   . .   .            . .   .            . .   .

|----------------------------------------------------|
|----------------------------------------------------|
|----------------------------------------------------|
|----------------------------------------------------|
|------8---7---5---7*-----------10---8---7---8*------|
|--0-0---0---0---------5*---0-0----0---0---------7*--|
   . .   .   .              . .    .   .
       |3|                  |--3-|
|----------------------------------------------|
|----------------------------------------------|
|----------------------------------------------| x2
|----------------------------------------------|
|------888-7-5-7*-----------101010-8-7-8*------|
|--0---------------5*---0------------------7*--|
   .   ... . .              . . .

|---------------------------|
|---------------------------|
|---------------------------|
|-----------------///\\\----|
|--8~-------7-----///\\\----|
|--8~-------7-----///\\\----|


|---------------------------------------------|
|---------------------------------------------|
|---------------------------------------------| x8
|---------------------------------------------|
|--00000000000000--00--0000000000000--00--00--|
|--00000000000000--00--0000000000000--00--00--|
   ..............  ..  .............  ..  ..