Artillery - The Eternal War Chords & Tabs

 

The Eternal War Chords & Tabs

Artillery Chords & Tabs

Version: 1 Type: Tab 0 ratings
1 star 2 stars 3 stars 4 stars 5 stars
comments

The Eternal War Tab

   
          ARTILLERY - THE ETERNAL WAR
                     From the Album FEAR OF TOMORROW
                     Copyright 1985 NEAT RECORDS
                     Version 1.0 - (JAN - 2002)

Transcribed by: RENE C

For Questions, Comments, Newest Version, or Corrections contact
Rene C : at panzerkill@yahoo.dk

Check Out Heavy Tabs, With More Transcriptions On It:
 http://members.fortunecity.com/gailforce

..  - palm mute          /  - slide up to
 \  - slide down to      ~  - vibrato
 h  - hammer on          b  - bend
 p  - pull off            Suffixes for bend
                          ph - pinch harmonic
                           f - full bend    h - half bend
*  - see comment           r - release      t - tap bend
X  - percussion mute       ~ - vibrato bend
@  - slight palm mute     () - ghost note, sustained note

Tune Gtr to Eb


Riff A.1
|--------------------------------------------------------|
|--------------------------------------------------------|
|--------------------------------------------------------| 
|--2---3--5-3--2------5--3-------------------------------| 
|--2---3--5-3--2------3--1----------2-3-5-2h3p2-3-2------|
|--0---1--3-1--0--0-0-------0-0-0-0------------3----3----|

Riff A.2
|------------------------------------------------------------|
|------------------------------------------------------------|
|------------------------------------------------------------|
|--2---3--5-3--2------5--3-----------------------------------| 
|--2---3--5-3--2------3--1----------2-3-5-2h3p2-3-2---2------|
|--0---1--3-1--0--0-0-------0-0-0-0------------3----3--------|

Riff B.1
|-----------------------------------------|
|-----------------------------------------|
|-----------------------------------------|
|--9--------9-7-12-11------------7-10-----|
|--7--------7-5-10-9---------8-7----------|
|----000000-----------000000--------------|

Riff B.2
|-----------------------------------------|
|-----------------------------------------|
|-----------------------------------------|
|--9--------9-7-12-11---------------------| 
|--7--------7-5-10-9---------8-7----------|
|----000000-----------000000-----8h9p8----|

Riff C.1
|---------------------------------------------------------------------|
|---------------------------------------------------------------------|
|---------------------------------------------------------------------|
|---------------------------------------------------------------------|
|------------------------10-8-7------------------------2-3-2h3p2h3p2--|
|--0-0000-0-0000-0-0000-8--------0-0000-0-0000-3-3333-3---------------|

Riff C.2
|--------------------------------------------------------------------|
|--------------------------------------------------------------------|
|--------------------------------------------------------------------|
|------------------------------------------------------------2-5-2---|
|------------------------10-8-7------------------------2-3-5---------|
|--0-0000-0-0000-0-0000-8-------0-0000-0-0000-3-3333-3---------------|
[ Tab from: http://www.guitartabs.cc/tabs/a/artillery/the_eternal_war_tab.html ]
Riff C.3
|----------------------------------------------------------------|
|----------------------------------------------------------------|
|----------------------------------------------------------------|
|----------------------------------------------------------3-2---|
|------------------------10-8-7------------------------2-5-------|
|--0-0000-0-0000-0-0000-8-------0-0000-0-0000-3-3333-3-----------|

Riff D
|---------------------------------------------|
|---------------------------------------------|
|---------------------------------------------|
|--121212-111111101010--9-------7/9-7/9-------|
|--101010-9-9-9-8-8-8---7-------5/7-5/7-------|
|---------------------00---0000---------------|

Riff E.1
|------------------------------------------|
|------------------------------------------|
|------------------------------------------|
|----------7-9-------10/9---7/9------------|
|------5---5-7-------8-/7---5/7------------|
|--000-3-0------0000------0----------------|

Riff E.2
|------------------------------------------|
|------------------------------------------|
|------------------------------------------|
|----------7-9-------7-5---7-6-5-----------|
|------5---5-7-----------7-------7-6-------|
|--000-3-0------0000-----------------------|

Riff F
|-----------------------------------------------|
|-----------------------------------------------|
|-----------------------------------------------|
|--999-7-7/6-6---------------4-----5-----7------|
|--777-5-5/4-4--999-7-7/6-6--4-----5-----7------|
|---------------777-5-5/4-4--2-0-0-3-0-0-5------|

Riff G.1
|--------------------------------------|
|--------------------------------------|
|--------------------------------------|
|--------------------------------------|
|--7-6-----------------7-6-------------|
|------0-0-0-0-0-0-0-0-----7-6-3-6-----|

Riff G.2
|---------------------------------------|
|---------------------------------------|
|---------------------------------------|
|---------------------------------------|
|--7-6-----------------7-6--------------|
|------0-0-0-0-0-0-0-0-----7-6-5-3------|

Fill
|-------------------|
|-------------------|
|-------------------|
|-------------------|
|------5---6---6----|
|--0-0---0---0------|

Riff H
|--------------------------|
|--------------------------|
|--------------------------|
|--------------------9-8---|
|--5-----7-----5-----7-6---|
|--3-0-0-5-0-0-3-0-0-------|

Riff I
|------------------------------------------------------------|
|------------------------------------------------------------|
|------------------------------------------------------------|
|----------7/6-----9/8---------12/11-----8\9-----------------|
|--5/4-----5/4-----7/6---------10/9------6\7-----7\8-7\8-----|
|--3/2-0-0-----0-0-----0-0-0-0-------0-0-----0-0-5\6-5\6-----|

Riff J
|------------------------------------------------------------------|
|------------------------------------------------------------------|
|------------------------------------------------------------------|
|------------------------------------------------------------------|
|----------5/4-5/4---------7\8-7\8---------5/4-5/4--7p6---------5--|
|--0-0-0-0-3/2-3/2-0-0-0-0-5\6-5\6-0-0-0-0-3/2-3/2------7p6-5h6----|
Comments