Art Brut - Am I Normal Chords & Tabs

 

Am I Normal Chords & Tabs

Art Brut Chords & Tabs

Version: 1 Type: Bass Tab

Am I Normal Bass Tab

   
----------------------------------------------------------------------------
                            Am I Normal? - Art Brut
----------------------------------------------------------------------------

http://www.artbrut.org.uk/index.php
http://www.myspace.com/artbrut

Tabbed By : Waswares

Tuning: Standard

Intro:

G|-----------------------------------|
D|-----------------------------------|
A|-5-5-5-53-5-5-5-53-5-5-5-53-33-----|
E|-------------------------------55--|

Verse:

G|---------------------|
D|---------------------|
A|-7-7-5-5-------------|
E|---------3-0-33-0-3--|

Chorus:

G|---------------------------------------------------------------|
D|-----------------------------------22222222--------------------|
A|-55555575---------55555575-----------------33333333------------|
E|----------33333303--------33333303---------------------5-5-88--|

Verse

G|---------------------|
D|---------------------|
A|-7-7-5-5-------------|
E|---------3-0-33-0-3--|

Chorus:

G|------------------------------------------------------------------|
D|-----------------------------------22222222-----------------------|
A|-55555575---------55555575-----------------33333333---------------|
E|----------33333303--------33333303---------------------5555-8888--|

Bridge:

G|-------------------------------------------------|
D|----------55----------55----------55-------------|
A|-55-77-88----55-77-88----55-77-88----------------|
E|--------------------------------------88888-5555-|
[ Tab from: http://www.guitartabs.cc/tabs/a/art_brut/am_i_normal_btab.html ]
G|--------------------------------------------|
D|----------55----------55----------55--------|
A|-55-77-88----55-77-88----55-77-88-----------|
E|--------------------------------------8--5--|

Verse

G|---------------------|
D|---------------------|
A|-7-7-5-5-------------|
E|---------3-0-33-0-3--|

Chorus:

G|------------------------------------------------------------------|
D|-----------------------------------22222222-----------------------|
A|-55555575---------55555575-----------------33333333---------------|
E|----------33333303--------33333303---------------------5555-8888--|

Bridge:

G|----------------------------------|
D|----------------------------------|
A|-5-5-5-53-5-5-5-53-5-5-5-53-33----|
E|------------------------------55--|

Bridge:

G|-------------------------------------------------|
D|----------55----------55----------55-------------|
A|-55-77-88----55-77-88----55-77-88----------------|
E|--------------------------------------88888-5555-|

G|-------------------55-77-------------------55-77--|
D|----------55-77-88----------------55-77-88--------|
A|-55-77-88----------------55-77-88-----------------|
E|--------------------------------------------------|


G|--------------------------------------------|
D|----------55----------55----------55--------|
A|-55-77-88----55-77-88----55-77-88-----------|
E|--------------------------------------8--5--|


| /  slide up
| \  slide down
| h  hammer-on
| p  pull-off
| ~  vibrato
| +  harmonic
| x  Mute note
============================================================================