Army Of Juan - Chicken Chords & Tabs

 

Chicken Chords & Tabs

Army Of Juan Chords & Tabs

Version: 2 Type: Bass Tab 0 ratings
1 star 2 stars 3 stars 4 stars 5 stars
comments

Chicken Bass Tab

=======================================================================
                        CHICKEN-ARMY OF JUAN
======================================================================


BASS TAB
 


INTRO:

G:-------------------
D:-----6-6-----------   (REPEAT 4 TIMES THEN GO TO VERSE)
A:-7-7------------6-6
E:-----------7-7-----

VERSE:
[ Tab from: http://www.guitartabs.cc/tabs/a/army_of_juan/chicken_btab_ver_2.html ]
G:-----------------------------------
D:-----6-7--------------4-5----------
A:-7-7----------6-7-5-5-----------4-5
E:----------7-7---------------5-5----

FAST SKA PART:

G:---------------------------
D:--------6-7---------------4
A:7-7-7-7----------------5---
E:--------------7-7-7-7------

PUNK CHORUS:

G:--------------------------
D:--------------------------
A:7-7-7---------------------
E:------7-7-7-10-10-10-5-5-5
Comments