Army Of Freshman - Get Um Up Chords & Tabs

 

Get Um Up Chords & Tabs

Army Of Freshman Chords & Tabs

Version: 1 Type: Tab 0 ratings
1 star 2 stars 3 stars 4 stars 5 stars
comments

Get Um Up Tab

This is a new little band on tour right now with suburban legands
My first one so forgive me if something is wrong


Intro:
---------------------------------------------|
---------------------------------------------|
---------------------------------------------|
-6--6------7--6--4--4--6-------------4-------|   x2
--------7--------------------7--6--7---------|
---------------------------------------------|

          Verse:
-----------------------------------------------------------------|
-----------------------------------------------------------------|
-9--9---------------------------9--9-----------------------------|
-9--9------7------7--7--------7--7------7-----7--7--9--9---------|   x2
-7--7--7------7--7--7--6--7--7--7--7-----7--7--7--7--9-----------|
-------------------5--5--------------------------5--5--7--7------|
[ Tab from: http://www.guitartabs.cc/tabs/a/army_of_freshman/get_um_up_tab.html ]
Chorus:
----------------------------------------------------------------------------------------------|
----------------------------------------------------------------------------------------------|
--9--9--9--9--9--9--9--9------------------------------9--9--9--9--9--9--9--9------------------|
--9--9--9--9--9--9--9--9--5--5--5--5--5--5--5--5--9--9--9--9--9--9--9--9--5--5--5--5----------|
--7--7--7--7--7--7--7--7--5--5--5--5--5--5--5--5--7--7--7--7--7--7--7--7--5--5--5--5----------|
------------------------------3--3--3--3--3--3--3--3------------------------------3--3--3--3--|

------------------|
------------------|
------------------|
--9--9--9--9------|   x2
--9--9--9--9------|
--7--7--7--7------|

ThatŐs all I have figured out I think thatŐs all there is but if there is any thing I am 
or anything wrong please correct it and please rate my tab.
Comments