Armor For Sleep - Walking At Night Alone Chords & Tabs

 

Walking At Night Alone Chords & Tabs

Armor For Sleep Chords & Tabs

Version: 3 Type: Tab

Walking At Night Alone Tab

Armor For Sleep
Walking At Night Alone
tabbed by Doug Gedeon
(wheelsonthebusfan@hotmail.com)
drop D tuning

Intro

|----------12--| end of basement ghost singing,begining of walking at night
|---14---------| alone..
|------11------|
|--------------|
|--------------|
|--------------|

E----------------------------------------------------------------------------|
B----------------------------------------------------------------------------|
G-----------0------------------0------------------0-------------7------------|
D--------7----7---7---------7----7---7---------7----7---7---7/9---9--7/9\7\5-|
A-----9---------9--------9---------9--------5---------5----------------------|
D--9------------------7------------------5-----------------------------------|


pre-chorus part
----10------------7----7-----5----------------------------------------------|
---------7----------5----5---------7~---------------------------------------|
--------------9-------7----7------------------------------------------------|
----------------------------------------------------------------------------|
----------------------------------------------------------------------------|
----------------------------------------------------------------------------|

chorus
|---------------------------------------------------------------|
|---------------------------------------------------------------|
|---------------------------------------------------------------|
|--7---7---9---5---5---7----7--7----5----9----7-----------------|
|--7---7---9---5---5---7----7--7----5----9----7-----------------|
|--7---7---9---5---5---7----7--7----5----9----7-----------------|
[ Tab from: http://www.guitartabs.cc/tabs/a/armor_for_sleep/walking_at_night_alone_tab_ver_3.html ]
before 2nd verse that little fade away part
|--------------------------------------------------------------------------|
|--------------------------------------------------------------------------|
|--------------------------------------------------------------------------|
|--7-7-7---7-7-7---7-7-7---7-7-7---7-7-7---7-7-7---9-9-9-------------------|
|--9-9-9---7-7-7---5-5-5---5-5-5---9-9-9---7-7-7---7-7-7-------------------|
|--9-9-9---7-7-7---5-5-5---5-5-5---9-9-9---7-7-7---7-7-7-------------------|

(verse)

2nd verse end with
|-------------------------------------|
|-------------------------------------|
|--/-12---11----7----9---11-----------|
|--/--x---x-----x----x----x-----------|
|--/-10---9-----5----7----9-----------|
|-------------------------------------|

chorus
---------------------------------------------------------------|
---------------------------------------------------------------|
---------------------------------------------------------------|    x2
--7---7---9---5---5---7----7--7----5----9----7-----------------|
--7---7---9---5---5---7----7--7----5----9----7-----------------|
--7---7---9---5---5---7----7--7----5----9----7-----------------|


bridge
---------------------------------------------------------------------------|
---------------------------------------------------------------------------|
------6---7---9---------7----9--11---------13-----12--11-------------------|
-5--------x---x----5----x----x---x---7-----x-------x---x----(x2)-----------|
-5---4----5---7----5----7----9---7-----11---10-----9---9-------------------|
-5----------------5--------------------7-----------------------------------|

play (verse) one more time well actually four times then on the fifth do it without the 
sliding part.

chorus

then end with the bridge.