Armor For Sleep - Truth About Heaven Chords & Tabs

 

Truth About Heaven Chords & Tabs

Armor For Sleep Chords & Tabs

Version: 1 Type: Bass Tab 0 ratings
1 star 2 stars 3 stars 4 stars 5 stars
comments

Truth About Heaven Bass Tab

   
-------------------------------------------------------------------------------
			     Armor for Sleep - The Truth About Heaven
-------------------------------------------------------------------------------

Tabber:roel y. 
tuning:drop d (d a d g)

| /  slide up
| \  slide down
=====================

intro
G|--------------------------------------------------------------------------------------|
D|--------------------------------------------------------------------------------------|
A|--------------------------------------------------------------------------------------|
D|--5--5-5-5-5-5-5-5-5-5-5-5-5-5-7--7-7-7-7-7-8--8-8-8-8-8-9--9-9-9-9-9-9-9-9-9-9-9-9-9-|
cont.
G|-------------------------------|
D|-------------------------------|(x2)
A|-------------------------------|
D|--9--9-9-9-9-9-9-9--9-9-9--9-9-|


verse
G|--------------------------------------------------------|     
D|--------------------------------------------------------|(x4) 
A|--------------------------------------------------------|     
D|--2--2-2-2-2-2-2-2-2-2-2-2-2-2--5--5-5-5-5-5-5-5-5-5-5-5|     


chorus
G|--------------------------------------------------------------------------------------|
D|--------------------------------------------------------------------------------------|
A|--------------------------------------------------------------------------------------|
D|--5--5-5-5-5-5-5-5-5-5-5-5-5-5-7--7-7-7-7-7-8--8-8-8-8-8-9--9-9-9-9-9-9-9-9-9-9-9-9-9-|
cont.
G|-------------------------------|
D|-------------------------------|(x2)
A|-------------------------------|
D|--9--9-9-9-9-9-9-9--9-9-9--9-9-|

[ Tab from: http://www.guitartabs.cc/tabs/a/armor_for_sleep/truth_about_heaven_btab.html ]
solo part thing
G|-----------------------------------------------------------|     
D|-----------------------------------------------------------|(x2) 
A|-------------------------------------------------5/7-7-7\5-|     
D|--2--2-2-2-2-2-2-2-2-2-2-2-2-2--5--5-5-5-5-5-5-5-----------|     


verse
G|-------------------------------------------------------|     
D|-------------------------------------------------------|(x4) 
A|-------------------------------------------------------|     
D|--2--2-2-2-2-2-2-2-2-2-2-2-2-2--5--5-5-5-5-5-5-5-5-5-5-|    


chorus
G|--------------------------------------------------------------------------------------|
D|--------------------------------------------------------------------------------------|
A|--------------------------------------------------------------------------------------|
D|--5--5-5-5-5-5-5-5-5-5-5-5-5-5-7--7-7-7-7-7-8--8-8-8-8-8-9--9-9-9-9-9-9-9-9-9-9-9-9-9-|
cont.
G|-------------------------------|
D|-------------------------------|(x2)
A|-------------------------------|
D|--9--9-9-9-9-9-9-9--9-9-9--9-9-|


breakdown
G|------------------------------------------------------------------|
D|------------------------------------------------------------------|(x2)
A|------------------------------------------------------------------|
D|--0-0-0-0-0-0-0-0-4-4-4-4-4-4-4-4-5-5-5-5-5-5-5-5-5-5-5-5-5-5-5-5-|

G|-------|
D|-------|
A|-------|
D|--0----|


chorus
G|--------------------------------------------------------------------------------------|
D|--------------------------------------------------------------------------------------|
A|--------------------------------------------------------------------------------------|
D|--5--5-5-5-5-5-5-5-5-5-5-5-5-5-7--7-7-7-7-7-8--8-8-8-8-8-9--9-9-9-9-9-9-9-9-9-9-9-9-9-|
cont.
G|-------------------------------|
D|-------------------------------|(x2)
A|-------------------------------|
D|--9--9-9-9-9-9-9-9--9-9-9--9-9-|


outro
G|-------|
D|-------|
A|-------|
D|--0----|
Comments