Armor For Sleep - Stay On The Ground Chords & Tabs

 

Stay On The Ground Chords & Tabs

Armor For Sleep Chords & Tabs

Version: 1 Type: Tab 0 ratings
1 star 2 stars 3 stars 4 stars 5 stars
comments

Stay On The Ground Tab

Song: Stay On The Ground
Album: What To Do When Your Dead
Band: Armor For Sleep
Tabber: Calum Neil (afirock74@hotmail.com)
Tuning: Drop D

I missed a riff at the end

.  - palm mute
/  - slide up and down to
b  - Bend
() - Natural harmonics
*  - Pinch harmonics
h  - Hammer
p  - Pull off
"  - Tremolo Picking
x  - Mute

Guitar 1 intro:
e|---------------------------------------|
B|---------------------------------------|
G|---------------------------------------|
D|-3-3-3-2-2-2-0-0-0-0-0-----------------|
A|-----------------------3-3-3--0-0-0----|
d|---------------------------------------|
   . . . . . . . . . .   . . .  . . .

Guitar 2 Intro:
e|-------|
B|-------|
G|-------|
D|--3----|
A|--3----|
d|--3----|
    . 

Riff:
e|-----|
B|-5---|
G|-x---|
D|-2---|
A|-----|
d|-----|

Verse 1:
e|--------------------------------------------------|
B|--------------------------------------------------|
G|--------------------------------------------------|
D|-3-3-3-3--5-5-5-5--9-9-9-9-9-9-10101010101010-----|
A|-3-3-3-3--5-5-5-5--7-7-7-7-7-7-7-7-7-7-7-7-7------|
d|-3-3-3-3--5-5-5-5--7-7-7-7-7-7-7-7-7-7-7-7-7------|
[ Tab from: http://www.guitartabs.cc/tabs/a/armor_for_sleep/stay_on_the_ground_tab.html ]
Verse 2 Guitar 1:
e|-0----------------------------|
B|--3-1-3-1--1------------------|
G|----------2--2-0-2-2-2-0------|
D|-------------------------2-0--|
A|------------------------------|
d|------------------------------|
   .. . . . .. . . . . . . . .

Verse 2 Guitar 2:
e|--------------------------------|
B|--------------------------------|
G|--------------------------------|
D|--------------------------------|
A|--------------------------------|
d|-3-3-3--5-5-5--7-7-7-7-7-7-7-7--|
   . . .  . . .  . . . . . . . .

Chorus:
e|---------------------------------------------|
B|---------------------------------------------|
G|----------------7-7-7----------------9-9-9---|
D|--3-3--3-3-3-3--x-x-x--7-7--7-7-7-7--x-x-x---|
A|--3-3--3-3-3-3--5-5-5--7-7--7-7-7-7--7-7-7---|
d|--3-3--3-3-3-3---------7-7--7-7-7-7----------|

Chorus 2 Guitar 1:
e|-----|
B|-8---|
G|-x---|
D|-5---|
A|-----|
d|-----|

Chorus 2 Guitar 2:
e|--------------------------------------------------|
B|--------------------------------------------------|
G|-10-10-10-10-10-10-10-7-7-7--9-9-9-9-9-9-9-9-9-9--|
D|-x--x--x--x--x--x--x--x-x-x--x-x-x-x-x-x-x-x-x-x--|
A|-8--8--8--8--8--8--8--5-5-5--7-7-7-7-7-7-7-7-7-7--|
d|--------------------------------------------------|

Bridge:
e|-------------------------|
B|-------------------------|
G|-------4/5---------------|
D|--3-3------3-2--2/3/2/0--|
A|--3-3--------------------|
d|--3-3--------------------|
Comments