Armor For Sleep - My Town Chords & Tabs

 

My Town Chords & Tabs

Armor For Sleep Chords & Tabs

Version: 2 Type: Tab 0 ratings
1 star 2 stars 3 stars 4 stars 5 stars
comments

My Town Tab

----------------------------------------------------------------------------
			     MY TOWN - Armor for Sleep
----------------------------------------------------------------------------
Tabbed by:Gregus
Email:lowest_score3000@yahoo.com

Tuning:Drop D

 Guitar(1)
 Intro Part 1
e|-8h10------10------8h10-----10-----8h10----10--|
B|-------11-----11--------11-----11-------11-----|
G|-----------------------------------------------|
D|-----------------------------------------------|
A|-----------------------------------------------|
D|-----------------------------------------------|

 Guitar(1)
 Intro Part 2
e|------------------------------------------------------------|
B|------------------------------------------------------------|
G|--3-3-3--55-55-3-3----3-3-3--22-22-2-3----------------------|
D|--3-3-3--33-33-3-3----3-3-3--33-33-3-3----------------------|
A|--1-1-1--11-11-1-1----0-0-0--00-00-0-0----------------------|
D|------------------------------------------------------------|

 Guitar(1)
 Verse {listen to song for timing}
e|-10--8--6---5h6p5-5~--5h6p5-----------|
B|-----------------------------6--------|
G|--------------------------------------|
D|--------------------------------------|
A|--------------------------------------|
D|--------------------------------------|

 Guitar(1)
 Verse Cont. 
e|--------------------------------------|
B|--------------------------------------|
G|-333/555/5---3333225------------------|
D|-xxx/xxx/x---3333333------------------|
A|-111/333/7---0000000------------------|
D|--------------------------------------|

 Guitar(1)
 Chorus
e|-8h10----10---------------------------|
B|------11----10-11----11---------------|
G|------------------10------------------|
D|--------------------------------------|
A|--------------------------------------|
D|--------------------------------------|
[ Tab from: http://www.guitartabs.cc/tabs/a/armor_for_sleep/my_town_tab_ver_2.html ]
 Guitar(1)
 Bridge
e|--------------------------------------|-----------|-----------|
B|--------------------------------------|------10---|-10/12/10--|
G|-3-3-3/5-5/7-7777----5-5-5/5-5/8-8888-|-8888-x----|--x/x/x----|
D|-x-x-x/x-x/x-xxxx----x-x-x/x-x/x-xxxx-|-8888-8----|--8/10/8---|
A|-1-1-1/3-3/5-5555----3-3-3/7-7/6-6666-|-8888------|-----------|
D|--------------------------------------|-----------|-----------|
 Here you play the first part one time all the way through then play the  
 barcord & octave part 4 times(that will be one whole time through the 
 bridge.) Then instead of playing just the octave one the last run through 
 play the slide part. (If this confuses you just listen to the song.)


 Intro1 X 3
 Intro2 X 1
 Intro1 X 2
 Intro2 X 1
 Verse X 2
 Chorus X 8
 Intro1 X 2
 Intro2 X 1 
 Verse X 2
 Chorus X 8
 Bridge X 3
 Chorus X 8
 Intro1 X 8

----------------

 Guitar(2)
 Intro 1 
e|------------------------------------------|
B|------------------------------------------|
G|------------------------------------------|
D|-1~-1111-3333--55555555-------------------|
A|-1~-1111-3333--55555555-------------------|
D|-1~-1111-3333--55555555-------------------|
   ^
   ^
  Only the very first time


 Guitar(2)
 Intro Part 2
e|------------------------------------------------------------|
B|------------------------------------------------------------|
G|--3-3-3--33-33-3-3----3-3-3--33-33-3-3----------------------|
D|--3-3-3--33-33-3-3----3-3-3--33-33-3-3----------------------|
A|--1-1-1--11-11-1-1----0-0-0--00-00-0-0----------------------|
D|------------------------------------------------------------|

 Guitar(2)
 Verse
e|------------------------------------------|
B|------------------------------------------|
G|------------------------------------------|
D|-11111111-33333333--5555555555555555------|
A|-11111111-33333333--5555555555555555------|
D|-11111111-33333333--5555555555555555------|
   ******** ********  ***** *** ** * * 

 Guitar(2)
 Chorus
e|------------------------------------------|
B|------------------------------------------|
G|-888----333-------------------------------|
D|-888----333---333---111-------------------|
A|-666----111---333---111-------------------|
D|--------------333---111-------------------|

 Guitar(2)
 Bridge
e|--------------------------------------------------------|
B|--------------------------------------------------------|
G|--------------------------------------------------------|
D|-1111---------3333------5555-5555-5555-555--------------|
A|-1111---------3333------5555-5555-5555-555--------------|
D|-1111---------3333------5555-5555-5555-555--------------|

 Intro1 X 1
 Intro2 X 1
 Intro1 X 1
 Intro2 X 1
 Verse X 2
 Chorus X 4
 Intro1 X 2
 Intro2 X 1 
 Verse X 2
 Chorus X 4
 Bridge X 3
 Chorus X 8

If you have any questions or comments e-mail me at lowest_score3000@yahoo.com
Comments