Armor For Sleep - Car Underwater Chords & Tabs

 

Car Underwater Chords & Tabs

Armor For Sleep Chords & Tabs

Version: 2 Type: Tab 0 ratings
1 star 2 stars 3 stars 4 stars 5 stars
comments

Car Underwater Tab

   
Band: Armor for Sleep
Song: "Car Underwater"
Album: What to do when you are dead

Intro
PM . . .  . . .  . .  . .  . . . . . . .. .  . . .  . .  . . .  . . .  
E|-----------------------------------|---------------------------------|
B|-----------------------------------|---------------------------------|
G|-----------------------------------|---------------------------------|
D|-91111-91111--911-911--911111111-|-91212--91212--914-912-9-141412-|
A|-9-9-9--9-9-9--9-9--9-9--9-9-9-9-9|-9-9-9--9-9-9--9-9--9-9-9--9-9-9-|
D|-9-9-9--9-9-9--9-9--9-9--9-9-9-9-9-|-0-0-0--0-0-0--0-0--0-0-0--0-0-0-|

PM . . .  . . .  . .  . .  . . . . . . . . . . . . .. . . .  . .
E|-----------------------------------|---------------------------|
B|-----------------------------------|---------------------------|
G|-----------------------------------|---------------------------|
D|-91111-91111--911-911--911111111-|------------------------xx-|
A|-9-9-9--9-9-9--9-9--9-9--9-9-9-9-9|------/999999-777-------xx-|
D|-9-9-9--9-9-9--9-9--9-9--9-9-9-9-9-|-11-11------------99999-xx-|

Verse 1
PM . . .  . . .  . .  . .  . . . . . . .. .  . . .  . .  . . .  . . .  
E|-----------------------------------|---------------------------------|
B|-----------------------------------|---------------------------------|
G|-----------------------------------|---------------------------------|
D|-91111-91111--911-911--911111111-|-91212-91212--914-912-9-141412-|
A|-9-9-9--9-9-9--9-9--9-9--9-9-9-9-9|-9-9-9-9-9-9--9-9--9-9-9--9-9-9-|
D|-9-9-9--9-9-9--9-9--9-9--9-9-9-9-9-|-0-0-0--0-0-0--0-0--0-0-0--0-0-0-|

PM . . .  . . .  . .  . .  . . . . . . . . . . . . .. . . .  . .
E|-----------------------------------|---------------------------|
B|-----------------------------------|---------------------------|
G|-----------------------------------|---------------------------|
D|-91111-91111--911-911--911111111-|------------------------xx-|
A|-9-9-9--9-9-9--9-9--9-9--9-9-9-9-9|------/999999-777-------xx-|
D|-9-9-9--9-9-9--9-9--9-9--9-9-9-9-9-|-11-11------------99999-xx-|

PM . . .  . . .  . .  . .  . . . . .  . .  . . . . . . .  . . .  . . .  
E|-----------------------------------|---------------------------------|
B|-----------------------------------|---------------------------------|
G|-----------------------------------|---------------------------------|
D|-91111-91111--911-911--911111111-|-91212--91212--914-912-9-141412-|
A|-9-9-9--9-9-9--9-9--9-9--9-9-9-9-9|-9-9-9--9-9-9--9-9--9-9-9--9-9-9-|
D|-9-9-9--9-9-9--9-9--9-9--9-9-9-9-9-|-0-0-0--0-0-0--0-0--0-0-0--0-0-0-|

PM . . .  . . .  . .  . .  . . . . .    
E|-----------------------------------|-------------------------------------|
B|-----------------------------------|-------------------------------------|
G|-----------------------------------|-6-6/9-9-9-9-9-9-9-9-7-7-7-4-4-4-4-4-|
D|-91111-91111--911-911--911111111-|-x-x/x-x-x-x-x-x-x-x-x-x-x-x-x-x-x-x-|
A|-9-9-9--9-9-9--9-9--9-9--9-9-9-9-9|-4-4/7-7-7-7-7-7-7-7-5-5-5-2-2-2-2-2-|
D|-9-9-9--9-9-9--9-9--9-9--9-9-9-9-9-|-------------------------------------|

Chorus (4x)
E|-------------------------------------------------------------|
B|-----------0-0-0-0-0-0-0-0-----------------------------------| 
G|-7-x-9-9-x-0-0-0-0-0-0-0-0-x1111111111111111-9-9-9-9-9-9-9-9-|
D|-5-x-7-7-x-2-2-2-2-2-2-2-2-x-9-9-9-9-9-9-9-9-7-7-7-7-7-7-7-7-|
A|-5-x-7-7-x-2-2-2-2-2-2-2-2-x-9-9-9-9-9-9-9-9-7-7-7-7-7-7-7-7-|
D|-5-x-7-7-x-2-2-2-2-2-2-2-2-x-9-9-9-9-9-9-9-9-7-7-7-7-7-7-7-7-|

Verse 2 
   . ..  . . .  . .  . .  . . . . .  . . .  . . .
E|-----------------------------------------------|
B|-----------------------------------------------|
G|-----------------------------------------------|
D|-999-999--99--99-99999--000--000--00-000--000-|
A|-999-999--99--99-99999--000--000--00-000--000-|
D|-999-999--99--99-99999--000--000--00000--000-|
[ Tab from: http://www.guitartabs.cc/tabs/a/armor_for_sleep/car_underwater_tab_ver_2.html ]
   . ..  . . .  . .  . .  . . . . .  . . .  . . .
E|-----------------------------------------------|
B|-----------------------------------------------|
G|-----------------------------------------------|
D|-999-999--99--99-99999--000--000--00-000--000-|
A|-999-999--99--99-99999--000--000--00-000--000-|
D|-999-999--99--99-99999--000--000--00000--000-|

   . ..  . . .  . .  . .  . . . . .  . . .  . . .
E|-----------------------------------------------|
B|-----------------------------------------------|
G|-----------------------------------------------|
D|-999-999--99--99-99999--000--000--00-000--000-|
A|-999-999--99--99-99999--000--000--00-000--000-|
D|-999-999--99--99-99999--000--000--00000--000-|
     
   . . .  . . .  . .  . .  . . . . .  . . .  . . .
E|-----------------------------------------------|-------------------------------------|
B|-----------------------------------------------|-------------------------------------|
G|-----------------------------------------------|-6-6/9-9-9-9-9-9-9-9-7-7-7-4-4-4-4-4-|
D|-999-999--99--99-99999--000--000--00000--000-|-x-x/x-x-x-x-x-x-x-x-x-x-x-x-x-x-x-x-|
D|-999-999--99--99-99999--000--000--00000--000-|-4-4/7-7-7-7-7-7-7-7-5-5-5-2-2-2-2-2-|
D|-999-999--99--99-99999--000--000--00000--000-|-------------------------------------|
     
Chorus (4x)
E|-------------------------------------------------------------|
B|-----------0-0-0-0-0-0-0-0-----------------------------------| 
G|-7-x-9-9-x-0-0-0-0-0-0-0-0-x1111111111111111-9-9-9-9-9-9-9-9-|
D|-5-x-7-7-x-2-2-2-2-2-2-2-2-x-9-9-9-9-9-9-9-9-7-7-7-7-7-7-7-7-|
A|-5-x-7-7-x-2-2-2-2-2-2-2-2-x-9-9-9-9-9-9-9-9-7-7-7-7-7-7-7-7-|
D|-5-x-7-7-x-2-2-2-2-2-2-2-2-x-9-9-9-9-9-9-9-9-7-7-7-7-7-7-7-7-|

Bridge
E|----------------------------------|---------------------------------------------||
B|----------------------------------|---------------------------------------------||
G|----------------------------------|---------------------------------------------||
D|-------7-------4-------4-------0--|------7--------4------4----------------------||
A|---2/5----------------------------|--2/5----------------------------------------||
D|----------0-2-----2/5-----0-2-----|-----------0-2----2/5-----0-2222222222222222-||

E|-------------------------------------------------------------||
B|-------------------------------------------------------------||
G|-------------------------------------------------------------||
D|---9--9--9--9-9-9-7--7--7--7-7-7-5--5--5--5-5-0-5-5-5--5-5-5-||
A|---9--9--9--9-9-9-7--7--7--7-7-7-5--5--5--5-5-0-5-5-5--5-5-5-||
D|---9--9--9--9-9-9-7--7--7--7-7-7-5--5--5--5-5-0-5-5-5--5-5-5-||

 
(3x)
E|---------14--------14--------14--------14--------14-------14-||
B|---10-12-----10-12-----10-12-----10-12-----10-12----10-12----||
G|-------------------------------------------------------------||
D|---9--9--9--9-9-9-7--7--7--7-7-7-5--5--5--5-5-0-5-5-5--5-5-5-||
A|---9--9--9--9-9-9-7--7--7--7-7-7-5--5--5--5-5-0-5-5-5--5-5-5-||
D|---9--9--9--9-9-9-7--7--7--7-7-7-5--5--5--5-5-0-5-5-5--5-5-5-||

Chorus (4x)
E|-------------------------------------------------------------|
B|-----------0-0-0-0-0-0-0-0-----------------------------------| 
G|-7-x-9-9-x-0-0-0-0-0-0-0-0-x1111111111111111-9-9-9-9-9-9-9-9-|
D|-5-x-7-7-x-2-2-2-2-2-2-2-2-x-9-9-9-9-9-9-9-9-7-7-7-7-7-7-7-7-|
A|-5-x-7-7-x-2-2-2-2-2-2-2-2-x-9-9-9-9-9-9-9-9-7-7-7-7-7-7-7-7-|
D|-5-x-7-7-x-2-2-2-2-2-2-2-2-x-9-9-9-9-9-9-9-9-7-7-7-7-7-7-7-7-|

Outro/Chorus
E|--------------------------------------------------------------||
B|--------------------------------------------------------------|| 
G|---7-x-9-9-x--4-4-4-4-4-4-4-4--11-11-11-11-11--9--9--9--9--9--|| 
D|---5-x-7-7-x--2-2-2-2-2-2-2-2---x--x--x--x--x--x--x--x--x--x--||
A|---5-x-7-7-x--2-2-2-2-2-2-2-2---9--9--9--9-9--7--7--7--7--7--||
D|---5-x-7-7-x--2-2-2-2-2-2-2-2---------------------------------||

E|----------------|
B|----------------| 
G|-7-x-9-9-x-4-4--|
D|-5-x-7-7-x-2-2--|
A|-5-x-7-7-x-2-2--|
D|-5-x-7-7-x-2-2--|
Comments