Armor For Sleep - Being Your Walls Chords & Tabs

 

Being Your Walls Chords & Tabs

Armor For Sleep Chords & Tabs

Version: 2 Type: Tab 0 ratings
1 star 2 stars 3 stars 4 stars 5 stars
comments

Being Your Walls Tab

   
Armor for Sleep- Being Your Walls
Tabber- Roel Y.

tuning- d a d g b e

h- hammer on
p- pull off
/- slide

intro:guitar 1 (12x)
E|------------------|
B|---------0--------|
G|--3h4p3-3-3-------|
D|-------4---4------|
A|------------------|
D|------------------|


intro/pre chorus:guitar 2 (2x)
E|--------------------------------------------|
B|--------------------------------------------|
G|-----------------4/6-6-6-6-6-6/4-4-4-4-4-4--|
D|--6-------2------x-x-x-x-x-x-x-x-x-x-x-x-x--|
A|--6-(16x)-2-(8x)-2/4-4-4-4-4-4/2-2-2-2-2-2--|
D|--6-------2---------------------------------|


verse:guitar 1 (vibrato on)
E|-------------------------|
B|-------------------------|
G|--4-3---4-3--------------|
D|-----4-------------------|
A|-------------------------|
D|-------------------------|


pre chorus:guitar 1 (7x)
E|-------------------------|
B|---------0---------------|
G|--3h4p3-3-3--------------|
D|-------4---4-------------|
A|-------------------------|
D|-------------------------|


chorus:guitar 1 (2x)
E|------------------------------|
B|------------------------------|
G|-11-11-11-11/7/8-8-8-8-8------|
D|--x--x--x--x-x-x-x-x-x-x-(2x)-|
A|--9--9--9--9/5/6-6-6-6-6------|
D|------------------------------|

E|-------------------------------------------|
B|-------------------------------------------|
G|--8-8-8-8-8-8/6-6-6-6-6/4-4-4-4--4/3-3-3-3-|
D|--x-x-x-x-x-x-x-x-x-x-x-x-x-x-x--x-x-x-x-x-|
A|--6-6-6-6-6-6/4-4-4-4-4/2-2-2-2--2/1-1-1-1-|
D|-------------------------------------------|

[ Tab from: http://www.guitartabs.cc/tabs/a/armor_for_sleep/being_your_walls_tab_ver_2.html ]
chorus:guitar 2 (4x)
E|-------------------------------------|
B|-------------------------------------|
G|-------------------------------------|
D|--2------6------9------4------5------|
A|--2-(9x)-6-(9x)-9-(9x)-4-(4x)-5-(4x)-|
D|--2------6------9------4------5------|


guitar 1 (12x)
E|------------------|
B|---------0--------|
G|--3h4p3-3-3-------|
D|-------4---4------|
A|------------------|
D|------------------|


guitar 2 (2x)
E|--------------------------------------------|
B|--------------------------------------------|
G|-----------------4/6-6-6-6-6-6/4-4-4-4-4-4--|
D|--6-------2------x-x-x-x-x-x-x-x-x-x-x-x-x--|
A|--6-(16x)-2-(8x)-2/4-4-4-4-4-4/2-2-2-2-2-2--|
D|--6-------2---------------------------------|


guitar 2 (4x)
E|-----------------------------------------------|
B|-----------------------------------------------|
G|-----------------------------------------------|
D|--6------8------9------14------13------16------|
A|--6-(8x)-8-(4X)-9-(4x)-14-(8x)-13-(4x)-16-(4x)-|
D|--6------8------9------14------13------16------|

guitar 1 (3x)
E|-------2-------2-------|
B|-----------------------|
G|--4-3-4---4-3-4-4-3----|
D|-----------------------|
A|-----------------------|
D|-----------------------|


E|--7-9--6-7-|
B|-----------|
G|-----------|
D|-----------|
A|-----------|
D|-----------|


guitar 1 and 2 (2x)
E|------------------|
B|------------------|
G|------------------|
D|--6-------2-------|
A|--6-(20X)-2-(20X)-|
D|--6-------2-------|

ORDER:
intro
verse
pre chorus
chorus
intro
verse
pre chorus
chorus
breakdown
chorus

i think this is right... send me an email if there are any questions.
Comments