Armor For Sleep - A Quick Little Flight Chords & Tabs

 

A Quick Little Flight Chords & Tabs

Armor For Sleep Chords & Tabs

Version: 1 Type: Tab 0 ratings
1 star 2 stars 3 stars 4 stars 5 stars
comments

A Quick Little Flight Tab

-----------------------------------------------------------------------------
	         A Quick Little Flight - Armor For Sleep
-----------------------------------------------------------------------------
Tabbed by: chris giunta
[ Tab from: http://www.guitartabs.cc/tabs/a/armor_for_sleep/a_quick_little_flight_tab.html ]
e|-10------------------------------------------------------------------------|
B|---------------------------------------------------------------------------|
G|-------12--14--16----14----------------------------------------------------|
D|---------------------------------------------------------------------------|
A|---------------------------------------------------------------------------|
E|---------------------------------------------------------------------------|

e|-----------------12--8-----------------------------------------------------|
B|-----12---------------------12----------13--12-----------------------------|
G|-12------14--12---------12------14--12-------------------------------------|
D|---------------------------------------------------------------------------|
A|---------------------------------------------------------------------------|
E|---------------------------------------------------------------------------|
Comments