Arkham - Better Than Me Chords & Tabs

 

Better Than Me Chords & Tabs

Arkham Chords & Tabs

Version: 1 Type: Tab 0 ratings
1 star 2 stars 3 stars 4 stars 5 stars
comments

Better Than Me Tab

drop d tuning
1st part
-------------------------------------------|
-------------------------------------------|
-------------------------------------------|
----2---3----0---0------2---3---0--0--0-0--|
----2---3----0---0------2---3---0--0--0-0--|
----2---3----0---0------2---3---0--0--0-0--|

second part
[ Tab from: http://www.guitartabs.cc/tabs/a/arkham/better_than_me_tab.html ]
----------------------------------------------|
----------------------------------------------|
----------------------------------------------|
----------------------------------------------|
----------------------------------------------|
-0--10---12---0--10---12---0---10---12-(x8)---|

then there's other lead type stuff
Comments