Arkells - No Champagne Socialist Chords & Tabs

 

No Champagne Socialist Chords & Tabs

Arkells Chords & Tabs

Version: 1 Type: Bass Tab 0 ratings
1 star 2 stars 3 stars 4 stars 5 stars
comments

No Champagne Socialist Bass Tab

*I do not own any of the below music.
All rights belong to the original owners including:
Universal Music Canada Inc., 2450 Victoria Park Ave., Suite 1, Toronto, Ontario M2J 5H3, 
2008 Dine Alone Music Inc.,
AND Arkells Music Inc., 2011. This is 100% transcribed by my own ear, any corrections/comments
e-mail: flintknapper7@hotmail.com


Great Song by a great Canadian band with a very catchy harmonica
hook. Just makes me wanna get up, dance and drink some beer with good friends.
ANYWAYS I digress,
Enjoy.

No Champagne Socialist - Arkells

Intro:(0:11)
G|------------------|  G|---------------------|
D|4:----------------|  D|4:----2--------------|X4
A|4:-5-5-55h7-5-3-2-|  A|4:-0-0--0-----0h2/-5-|
E|------------------|  E|----------3-3--------|

Verse:(0:33)
G|---------------|  G|---------------| G|---------------|
D|4:-------------|  D|4:-------------| D|4:-------------|
A|4:-------------|  A|4:-------------| A|4:-55-55-55-55-|
E|---22-22-22-22-|  E|---33-33-33-33-| E|---------------|

Fill:(0:42)
G|-------------------|
D|4:-4-5-4-2-4-2-----|
A|4:-------------4-5-|
E|-------------------|

Play Verse 3X'S(0:44), BUT instead of playing the "Fill" on the 4th
bar of each verse, play:
G|----------------|
D|4:--------------|
A|4:-55-55-55-55\-|
E| ---------------|

Fill:(1:13)
G|--------------------| G|------------------|
D|4:--7-4p2h4-2-4-2---| D|4:----------------|
A|4:-5--------------5-| A|4:----------------|
E|--------------------| E|---3~--1~--0~-----|

Intro 4X's(1:21)

Verse(1:44)
G|---------------|  G|---------------| G|---------------| G|----------------|
D|4:-------------|  D|4:-------------| D|4:-------------| D|4:--------------|
A|4:-------------|  A|4:-------------| A|4:-55-55-55-55-| A|4:-55-55-55-55\-|
E|---22-22-22-22-|  E|---33-33-33-33-| E|---------------| E|----------------|
[ Tab from: http://www.guitartabs.cc/tabs/a/arkells/no_champagne_socialist_btab.html ]
G|---------------|  G|---------------| G|---------------| G|----------------|
D|4:-------------|  D|4:-------------| D|4:-------------| D|4:--------------|
A|4:-------------|  A|4:-------------| A|4:-55-55-55-55-| A|4:-55-55-55-77\-|
E|---22-22-22-22-|  E|---33-33-33-33-| E|---------------| E|----------------|

Play Verse Again at (2:08)
Then Play "Fill" at (2:16)

(2:19)
G|------------------|
D|4:----------------|
A|4:----------------|
E|---3~--1~--0~-----|

Intro:(2:23) 4x's

Intro "Variation":(2:45) There are 2 ways to play this,
here's the first: *NOTE The Jump from A5-A9h10 is very quick,
so dont hesitate to mute the 3rd A5
G|----------------------| G|----------------------|
D|4:------------------7-| D|4:--------------------|X4
A|4:-5-5-5(X)9h10-9-7---| A|4:-----7-------0h2/-5-|
E|----------------------| E|---5-5---5-3-3--------|

or:
G|----------------2-| G|----------------------|
D|4:------4h5-4-2---| D|4:-----2--------------|
A|4:-5-5-5----------| A|4:-0-0---0-----0h2/-5-|
E|------------------| E|-----------3-3--------|

Outro:(3:09)
G|---------------| G|----------------------|
D|4:-------------| D|4:-----2--------------|
A|4:-5~-5~-5~-5~-| A|4:-0-0---0-----0h2/-5-|
E|---------------| E|-----------3-3--------|

G|---------------| G|----------------------|
D|4:----5~-------| D|4:-----2--------------|
A|4:-5~----5~-5~-| A|4:-0-0---0-----0h2/-5-|
E|---------------| E|-----------3-3--------|

G|---------------| G|---4/-7-7-7-7-7-7-7-|
D|4:-------------| D|4:------------------|
A|4:-5~-5~-5~-5~-| A|4:------------------|
E|---------------| E|--------------------|

G|---------------| G|---5h7-5-4----------------|
D|4:-------------| D|4:---------7-5-4---4------| END
A|4:-5~-5~-5~-5~-| A|4:---------------5---5~---|
E|---------------| E|--------------------------|

~ = LET RING
/ = SLIDE UP
\ = SLIDE DOWN
p = PULL OFF
h = HAMMER ON
Comments