Arkells - Heart Of The City Chords & Tabs

 

Heart Of The City Chords & Tabs

Arkells Chords & Tabs

Version: 1 Type: Bass Tab 0 ratings
1 star 2 stars 3 stars 4 stars 5 stars
comments

Heart Of The City Bass Tab

   
*I do not own any of the below music.
All rights belong to the original owners including:
Universal Music Canada Inc., 2450 Victoria Park Ave., Suite 1, Toronto, Ontario M2J 5H3, 
2008 Dine Alone Music Inc.,
AND Arkells Music Inc., 2011. This is 100% transcribed by my own ear, any corrections/comments
e-mail: flintknapper7@hotmail.com

Awesome jam song for a group to play around with some extended solos
and what not.
Enjoy,

Heart of the City - Arkells

Intro:(0:02)
G|-----------------------|
D|4:---------------------|x3
A|4:-7-7-x7-7-77-7h9-7-5-|
E|-----------------------|

G|-----------------------|
D|4:---------------------|
A|4:-7-7-x7-7-77-333\----|
E|--------------------3~-|

BREAK Until:(0:29)
G|-----------------------------------|
D|4:-5~------------------------------|
A|4:-----3~--1~--3~------3~--1~--0~--|
E|-------------------3~--------------|

Pre-Chorus(0:41)  *NOTE Listen for exact rhythm.
G|------------------------------------|
D|4:----------------------------------|
A|4:-/3-3-x3-3333-3-3/-5-5-x5-5555-5\-|
E|------------------------------------|

G|--------------------------------------|
D|4:--------------------------77779999\-|x2
A|4:-/3-3-x3-3333-3-3/-5-5-x5-----------|
E|--------------------------------------|

Chorus:(1:05)
G|-----------------------|
D|4:-555-----------------|x4
A|4:-----3-333-----5-555-|
E|-------------333-------|
[ Tab from: http://www.guitartabs.cc/tabs/a/arkells/heart_of_the_city_btab.html ]
Intro:(1:22) 4x's

Break Until:(1:47)
G|-----------------------------------|
D|4:---------------------------------|
A|4:-----3~--1~--3~------3~--1~--0~--|
E|---3~--------------3~--------------|

Pre-Chorus:(2:01)2x's
Chorus 4x's

Bridge(2:39) *NOTE Listen For Exact Rhythms
G|----------------------------------------|
D|4:--------------------------------------|
A|4:-7-77-77\--2-22-22--3-33-33--5-55-55--|
E|----------------------------------------|

G|----------------------------------------|
D|4:------55\-----------------------------|
A|4:-7-777----2-22-222--3-33333--5-55555--|
E|----------------------------------------|

Break-Down:(2:53)
G|-------------------------------------|
D|4:----------14~-------16-14-12-------|X2
A|4:-----------------------------------|
E|--0~---------------------------------|

Pre-"Outro":(3:09)
G|---------------------------------------|
D|4:-------------------------------------|
A|4:----------22222222-33333333-55555555-|
E|---00000000----------------------------|

G|----------------------------------------|
D|4:--------55----------------------------|
A|4:-7777777---22222222-33333333-55555555-|
E|----------------------------------------|

Chorus:(3:20) 4X'S

Outro:(3:34)                  END ON:
G|-----------------------|    ----|
D|4:---------------------|X4  ----|
A|4:-777-33333-222-55555-|    ----|
E|-----------------------|    -3~-|


~ = LET RIGHT
/ = SLIDE UP
\ = SLIDE DOWN
Comments