Ark - Clamour For Glamour Chords & Tabs

 

Clamour For Glamour Chords & Tabs

Ark Chords & Tabs

Version: 1 Type: Tab 0 ratings
1 star 2 stars 3 stars 4 stars 5 stars
comments

Clamour For Glamour Tab

By: Alexander from Sweden

            Play 4 times as intro, interlude and outrochorus
        |------------------------------------------------------| 
|-------------------------------------------------------3p2------------|
|----------------------------------------------5----3-------3----------|
|---------------------------------7--5--x-5--5--------2-------2--------|
|-------2----0-2-0-2-0--9--x-9--9----5--x-5-------0--------------------|
|-------0----0-0-0-0-0--7--x-7-------3--x-3----------------------------|
|-0-3-0----------------------------------------------------------------|

During the "game to play" part
1.                2.
|-2----0--2--3--2-|-2--------|
|-3----3--3--3--3-|-3--------|
|-2----2--2--2--2-|-2--------|
|-0----0--0--0--0-|-0--------|
|-----------------|----------|
|-----------------|----------|
[ Tab from: http://www.guitartabs.cc/tabs/a/ark/clamour_for_glamour_tab.html ]
Chorus
|-------------------------------------------------3p2------------|
|----------------------------------------5----3-------3----------|
|---------------------------7--5--x-5--5--------2-------2--------| 2 times
|-2----0-2-0-2-0--9--x-9--9----5--x-5-------0--------------------|
|-0----0-0-0-0-0--7--x-7-------3--x-3----------------------------|
|----------------------------------------------------------------|

|---------------------------------------0--------|
|---------------------------------------0--------|
|---------------------------------------0--------|
|-10---5----7--------10---5----7--------2--------|
|-8----3----5--------8----3----5--------2--------|
|---------------------------------------0--------|

Licks
2:10                               
|-10b--10-8-10-8-------------------------|
|----------------s10b--10-8-5------------|
|-----------------------------7----------| Could'nt figure out the tremolo-
|-------------------------------7--------| pickingpart to 100%
|----------------------------------------| 
|----------------------------------------|

Ending
|------------------------------3-------------------------------|
|------------------------------3-------------------------------|
|------------------------------0-------------------------------|
|-10---5----7--------10---5---------------------------2--------|
|-8----3----5--------8----3---------------------------0--------|
|-----------------------------------------------0-3-0----------|
Comments