Arena - Serenity Chords & Tabs

 

Serenity Chords & Tabs

Arena Chords & Tabs

Version: 1 Type: Tab 0 ratings
1 star 2 stars 3 stars 4 stars 5 stars
comments

Serenity Tab

   
                                  ~ SERENITY ~
                              As recorded by Arena
                        (From the 1998 Album THE VISITOR)

Transcribed by Victor & Paulus

Gtr I (E A D G B E) - 'Distorted Solo Guitar with lots of delay.'

 4/4
  Gtr I
    ~            ~                   ~              ~
|---------------------------------------------------------|
|-------8-7-8p7-------------------------------------------|
|-7S9--------------------------------------7h9------------|
|----------------9-----5-7-8-5-7---5-------7-9--5-4-5-----|
|--------------------7-----------7---5-7------------------|
|---------------------------------------------------------|


                           ~                                          ~~
|------------------------------------------------------------------------------------|
|---8-10-12-8-10----------------12h15p12----------------12-15--15b17-17--15p12h15S17-|
|-9--------------9-12-7--7S9----------------12p11h12---------------------------------|
|------------------------------------------------------------------------------------|
|------------------------------------------------------------------------------------|
|------------------------------------------------------------------------------------|


                                                                              ~~
|----14b15r14--14p12h14-14b15-14p12--------------17-19-----17----------------------|
|-12--------------------------------15-----17-20--------20-----17-20--15--15S17----|
|----------------------------------------------------------------------------------|
|----------------------------------------------------------------------------------|
|----------------------------------------------------------------------------------|
|----------------------------------------------------------------------------------|


                                            ~~
|----------------------------19-----------------------------------------------------------|
|----17-17-17-20-17--20b22------20b22---20-20--19b21r19-15----15--------------------------|
|-16-------------------------------------------------------14----14S16-----12p11h12-------|
|-----------------------------------------------------------------------------------------|
|-----------------------------------------------------------------------------------------|
|-----------------------------------------------------------------------------------------|

[ Tab from: http://www.guitartabs.cc/tabs/a/arena/serenity_tab.html ]
                                               ~~                                                          ~
|------------------------------19------------------------------------------------------------------------------|
|----17-17-17-20-17---20b22-------20b22----20-20--19b20r=19--19-15----15---------------------------------------|
|-16---------------------------------------------------------------14----------------------------------7-9-9---|
|-------------------------------------------------------------------------16S17--17p16h17---14-14p12-----------|
|--------------------------------------------------------------------------------------------------------------|
|--------------------------------------------------------------------------------------------------------------|


                                                                              ~~
|----------------------------------------------------------------------------------|
|----------------------------------------------------------15b17---17b19--15-17----|
|-7h9-(9)\----12-9----9-12-9--12-9---14-12-14-------12-14--------------------------|
|------------------12-------------------------12-14--------------------------------|
|----------------------------------------------------------------------------------|
|----------------------------------------------------------------------------------|


                                    ~~               ~~              ~~                               ~
|-21b22-21-19--------------------------------------------------------------------------------------------|
|-------------22-21-19-21-22-21-22-17------12-15-12-14--14b15r14-12h14---15-12-14----12--8-10-7-8--------|
|---------------------------------------11----------------------------------------14--------------7-7S9--|
|--------------------------------------------------------------------------------------------------------|
|--------------------------------------------------------------------------------------------------------|
|--------------------------------------------------------------------------------------------------------|


      ~
|------------------------------------------------------------------------|
|------------------------------------------------------------------------|
|------------------------------4-5-7-5-4-----------4-5-7-5-4-------------|
|-9p7h9----4-5-7--5-4-5--4-5-7-----------7-5-4-5-7-----------7-5-4-------|
|--------7---------------------------------------------------------7-5-7-|
|------------------------------------------------------------------------|


                                           ~~
|---------------------------19----------------------------------------------------------|
|----17-17-17-20-17--20b22-----20b22---20-20---19b21r19--15----15-----------------------|
|-16--------------------------------------------------------14----14S16---12p11h12------|
|---------------------------------------------------------------------------------------|
|---------------------------------------------------------------------------------------|
|---------------------------------------------------------------------------------------|


                                            ~~                                                         ~
|----------------------------19--------------------------------------------------------------------------|
|----17-17-17-20-17--20b22------20b22---20-20---19b20r19-19-15----15-------------------------------------|
|-16-----------------------------------------------------------14----------------------------------7-9-9-|
|---------------------------------------------------------------------16S17---17p16h17---14-14p12--------|
|--------------------------------------------------------------------------------------------------------|
|--------------------------------------------------------------------------------------------------------|

Comments