Area 7 - Kicks Chords & Tabs

 

Kicks Chords & Tabs

Area 7 Chords & Tabs

Version: 1 Type: Tab 0 ratings
1 star 2 stars 3 stars 4 stars 5 stars
comments

Kicks Tab

Artist: Area 7
Title: Kicks
Album: Say It To My Face

Standard Tuning

Verse:-

E|-------------------------------------------|
B|-------------------------------------------|
G|-------------------------------------------|
D|-------------------------------------------|
A|---3-3-3-3---5-5-5-5---7-7-7-7---5-5-5-5---|
E|---3-3-3-3---5-5-5-5---7-7-7-7---5-5-5-5---|

E|-----------------------------------------|
B|-----------------------------------------|
G|-----------------------------------------|
D|-----------------------------------------|
A|---3-3-3-3-3-3-3-3---7-7-7-7---5-5-5-5---|
E|---3-3-3-3-3-3-3-3---7-7-7-7---5-5-5-5---|

Chorus:-

E|-------------------------|
B|-------------------------|
G|-------------------------|
D|-------------------------| x 4
A|---3-3---5-5---7-7-7-7---|
E|---3-3---5-5---7-7-7-7---|
[ Tab from: http://www.guitartabs.cc/tabs/a/area_7/kicks_tab.html ]
End of Chorus:-

E|-------|
B|-------|
G|-------|
D|-------|
A|---5---|
E|---5---|


Verse x 2

Chorus

Solo:-

E|-----------------------------------------|
B|---9-10-12-10-9-10-9---------------------|
G|---------------------16-16-14-14-12-12---|
D|-----------------------------------------|
A|-----------------------------------------|
E|-----------------------------------------|

E|--------------------------------------------------------------|
B|--------------------------------------------------------------|
G|---12-11-9-11-12-11-11-9-9-7-5-5-4-4-0---0-4-5-7-9-11-12-12---|
D|--------------------------------------------------------------|
A|--------------------------------------------------------------|
E|--------------------------------------------------------------|

Verse

Chorus x 2

End of Chorus


That's all of it.
See ya!
Comments