Area 7 - Jj Chords & Tabs

 

Jj Chords & Tabs

Area 7 Chords & Tabs

Version: 1 Type: Tab 0 ratings
1 star 2 stars 3 stars 4 stars 5 stars
comments

Jj Tab

Artist: Area 7
Title: JJ
Album: Say It To My Face

Standard Tuning

Intro:-

E|---------------------------------------|
B|---------------------------------------|
G|---5-5-5-5-5-5-5-5---7-7-7-7-7-7-7-7---|
D|---------------------------------------|
A|---------------------------------------|
E|---------------------------------------|

E|---------------------------------------|
B|---------------------------------------|
G|---9-9-9-9-9-9-9-9---5-5-5-5-5-5-5-5---|
D|---------------------------------------|
A|---------------------------------------|
E|---------------------------------------|

E|-------------------------------------------|
B|-------------------------------------------|
G|---5-5-5-5-5-5-5-5---7-7-7-7-7-7-7-7---9---|
D|-------------------------------------------|
A|-------------------------------------------|
E|-------------------------------------------|

Verse 1:-

E|---------------------------------------------------|
B|---------------------------------------------------|
G|---------------------------------------------------|
D|---------------------------------------------------| x 3
A|---8-8-8-8---10-10-10-10---12-12-12-12---8-8-8-8---|
E|---------------------------------------------------|

E|--------------------------------|
B|--------------------------------|
G|--------------------------------|
D|--------------------------------|
A|---8-8-8-8---10-10-10-10---12---|
E|--------------------------------|

Chorus:-
[ Tab from: http://www.guitartabs.cc/tabs/a/area_7/jj_tab.html ]
E|-------------------------------------------|
B|-------------------------------------------|
G|---5-5-5-5---7-7-7-7---9-9-9-9---5-5-5-5---|
D|-------------------------------------------| x 2
A|-------------------------------------------|
E|-------------------------------------------|

Verse 2:-

E|---------------------------------------------------|
B|---------------------------------------------------|
G|---------------------------------------------------|
D|---------------------------------------------------| x 2
A|---8-8-8-8---10-10-10-10---12-12-12-12---8-8-8-8---|
E|---------------------------------------------------|

Saxophone Solo (Guitar plays Verse 2 during Saxophone Solo)

Chorus

After Chorus 2:-

E|-------------------------|
B|-------------------------|
G|---5---7-5---7-5---7-5---|
D|-------------------------|
A|-------------------------|
E|-------------------------|

Verse 3:-

E|---------------------------------------------------|
B|---------------------------------------------------|
G|---------------------------------------------------|
D|---------------------------------------------------|
A|---8-8-8-8---10-10-10-10---12-12-12-12---8-8-8-8---|
E|---------------------------------------------------|

E|--------------------------------|
B|--------------------------------|
G|--------------------------------|
D|--------------------------------|
A|---8-8-8-8---10-10-10-10---12---|
E|--------------------------------|

Chorus x 2

That's all of it.
See ya!
Comments