Area 7 - Boys Dont Cry Chords & Tabs

 

Boys Dont Cry Chords & Tabs

Area 7 Chords & Tabs

Version: 1 Type: Tab 0 ratings
1 star 2 stars 3 stars 4 stars 5 stars
comments

Boys Dont Cry Tab

Area 7, Boys Don't Cry.
Tabbed by Brett Massingham, kornfreak_40@hotmail.com.
  
Artist: Area 7
Title: Boys Don't Cry
Album: Bitter and Twisted

Standard Tuning

Intro:

E|---------------------------------|
B|---------------------------------|
G|---------------------------------|
D|---------------------------------| x 3
A|---7-9---7-10---7-9---7-10-9-7---|
E|---------------------------------|

E|-----------------------|
B|---3-5-7-9---3-5-7-9---|
G|-----------------------|
D|-----------------------|
A|-----------------------|
E|-----------------------|

Verse

E|---------------------------------------|
B|---------------------------------------|
G|---------------------------------------|
D|---------------------------------------| x 7
A|---5-5-5-5-7-7-7-7---5-5-5-5-8-8-8-8---|
E|---------------------------------------|

Chorus

E|-----------------------|
B|---3-5-7-9---3-5-7-9---|
G|-----------------------|
D|-----------------------|
A|-----------------------|
E|-----------------------|

Verse

Chorus

Verse 

Chorus


E|-----------------------|
B|---3-5-7-9---9-7-5-3---|
G|-----------------------|
D|-----------------------|
A|-----------------------|
E|-----------------------|

E|-----------------------|
B|-----------------------|
G|-----------------------|
D|-----------------------| Play to end
A|---5-5-6-6-6-7-7-8-8---|
E|-----------------------|
[ Tab from: http://www.guitartabs.cc/tabs/a/area_7/boys_dont_cry_tab.html ]
If there's something wrong with this, e-mail me
Play along and see what you think
See ya! 
: Ultimate Guitar Archive :: 
ttp://www.ultimate-guitar.com 
To: submit@ultimate-guitar.com
ubject: New Tabs
-From: sergeev@ttg-russia.ru
Area 7, Boys Don't Cry.
Tabbed by Brett Massingham, kornfreak_40@hotmail.com.
 
rtist: Area 7
Title: Boys Don't Cry
Album: Bitter and Twisted

Standard Tuning

Intro:

E|---------------------------------|
B|---------------------------------|
G|---------------------------------|
D|---------------------------------| x 3
A|---7-9---7-10---7-9---7-10-9-7---|
E|---------------------------------|

E|-----------------------|
B|---3-5-7-9---3-5-7-9---|
G|-----------------------|
D|-----------------------|
A|-----------------------|
E|-----------------------|

Verse

E|---------------------------------------|
B|---------------------------------------|
G|---------------------------------------|
D|---------------------------------------| x 7
A|---5-5-5-5-7-7-7-7---5-5-5-5-8-8-8-8---|
E|---------------------------------------|

Chorus

E|-----------------------|
B|---3-5-7-9---3-5-7-9---|
G|-----------------------|
D|-----------------------|
A|-----------------------|
E|-----------------------|

Verse

Chorus

Verse 

Chorus


E|-----------------------|
B|---3-5-7-9---9-7-5-3---|
G|-----------------------|
D|-----------------------|
A|-----------------------|
E|-----------------------|

E|-----------------------|
B|-----------------------|
G|-----------------------|
D|-----------------------| Play to end
A|---5-5-6-6-6-7-7-8-8---|
E|-----------------------|

If there's something wrong with this, e-mail me
Play along and see what you think
See ya! 
:: Ultimate Guitar Archive :: 
http://www.ultimate-guitar.com 

Comments