Arcturus - Chaos Path Chords & Tabs

 

Chaos Path Chords & Tabs

Arcturus Chords & Tabs

Version: 1 Type: Tab 0 ratings
1 star 2 stars 3 stars 4 stars 5 stars
comments

Chaos Path Tab

   
                     ARCTURUS - THE CHAOS PATH
                FROM THE ALBUM - LA MASQUERADE INFERNALE
                  Copyright 1997 Music for nations & 
                         Misanthropy Records
                            Version 4.0

Transcribed by:Mamonas Makis(GREECE)
Souidos82@hotmail.com

Check Out DEATH WARP With More Transcriptions On It:
               http://tiger.towson.edu/~dalvis1

Check Out 's Web Page, With More Transcriptions On It:
               /index.html 


To Join The Official 's Death Tab Mailing List Contact Rich at
 

.  - palm mute                  /  - slide up to
\  - slide down to              ~  - vibrato
h  - hammer on                  b  - bend
p  - pull off                        Suffixes for bend
ph - pinch harmonic                   
*  - see comment                      
X  - percussion mute             
@  - slight palm mute           () - ghost note, sustained note
"  - 4 strokes on one note
        

Tune to B (B,E,A,D,F#,B)


|----------------------------------------------|
|----------------------------------------------|
|----------------------------------------------|
|-------4-2-----------10~----------------------|
|2~-----2-1---4-5-4----8~----------------------|
|0~-----------2/3\2----------------------------|
|                                              |
|----------------------------------------------|
|----------------------------------------------|
|---------------------------14^(16)~~~~--------|
|----------------------------------------------|
|-----------------(only-2th-&-4-&-6-&-8-time)--|
|----------------------------------------------|
                                             x8
(Await the ...)
|------------------------------------|------------------------------|
|12-11-10-9-10-11-12~--12~-11-10-9~--|10-9-8-7-8-9-10~--10~-9-8-7~--|
|------------------------------------|------------------------------|
|------------------------------------|------------------------------|
|------------------------------------|------------------------------|
|------------------------------------|------------------------------|
                                   x2                             x2

|10-9-8-7-8-9-10~--10~-9-8-7~---9-8-7-6-7-8-9~--9~-8-7-6~-----|
|-------------------------------------------------------------|
|-------------------------------------------------------------|
|-------------------------------------------------------------|
|-------------------------------------------------------------|
|-------------------------------------------------------------|
                                                            x2

|-------------------------------------------------------------------|
|-------------------------------------------------------------------|
|-------------------------------------------------------------------|
|4444------4444--------4444----444444----2222----2222--------2222---|
|2222-4~-x-2222-4~-----2222-4~-222222-4~-0000-2~-0000-2~-----0000-2~|            
|-----2~--------2~-2-6------2~--------2~------0~------0~-0-4------0~|

             1.                2.
|-----------|-----------------|----------------|-------|-------|
|-----------|-----------------|----------------|-------|-------|
|-----------|------------11~--|------------10~-|-------|-------|
|2222-------|-9/12\9\8/9------|-8/11\8\7/8-----|-1(x2)-|-2(x2)-|
|0000-2~----|-----------------|----------------|-------|-------|
|-----0~----|-----------------|----------------|-------|-------|
                            x2               x2


|-------|----------------|
|-------|----------------|
|-------|----------------|
|12^(13)|-11--12-12^(13)-|
|-------|----------------|
|-------|----------------|
     1st              x15

(Ways of....)
|---------------------------------------|
|---------------------------------------|
|---------------------------------------|
|------910-9~---------910-7~------------|
|22----7/8\7~---22----7/8\5~-----4/5----|
|00-------------00---------------2/3----|
 ..             ..                    x4
[ Tab from: http://www.guitartabs.cc/tabs/a/arcturus/chaos_path_tab.html ]
|----------------------------------------------|
|----------------------------------------------|
|----------------------------------------------|
|-------4-2-----------10~----------------------|
|2~-----2-1---4-5-4----8~----------------------|
|0~-----------2/3\2----------------------------|
|                                              |
|----------------------------------------------|
|----------------------------------------------|
|---------------------------14^(16)~~~~--------|
|----------------------------------------------|
|-----------------(only-2th-&-4-&-6-&-8-time)--|
|----------------------------------------------|
                                             x8
(Twisted...)
|--------------------------------|
|--------------------------------|
|--------------------------------|
|2~----------3~------------------|
|0~----------1~----------5~------|
|------------------------3~------|
                               x4
(Open your...)
|--------------------------------|
|--------------------------------|
|--------------------------------|
|7~----------8~----------5~------|
|5~----------6~----------3~------|
|--------------------------------|
                               x4


(Ahh this...)
|------------------------------------|------------------------------|
|12-11-10-9-10-11-12~--12~-11-10-9~--|10-9-8-7-8-9-10~--10~-9-8-7~--|
|------------------------------------|------------------------------|
|------------------------------------|------------------------------|
|------------------------------------|------------------------------|
|------------------------------------|------------------------------|
                                   x2                             x2

|10-9-8-7-8-9-10~--10~-9-8-7~---9-8-7-6-7-8-9~--9~-8-7-6~-----|
|-------------------------------------------------------------|
|-------------------------------------------------------------|
|-------------------------------------------------------------|
|-------------------------------------------------------------|
|-------------------------------------------------------------|
                                                            x2

|-------------------------------------------------------------------|
|-------------------------------------------------------------------|
|-------------------------------------------------------------------|
|4444------4444--------4444----444444----2222----2222--------2222---|
|2222-4~-x-2222-4~-----2222-4~-222222-4~-0000-2~-0000-2~-----0000-2~|            
|-----2~--------2~-2-6------2~--------2~------0~------0~-0-4------0~|

             1.                2.
|-----------|-----------------|----------------|--------|-------|
|-----------|-----------------|----------------|--------|-------|
|-----------|------------11~--|------------10~-|--------|-------|
|2222-------|-9/12\9\8/9------|-8/11\8\7/8-----|---1.---|---2.--|
|0000-2~----|-----------------|----------------|--------|-------|
|-----0~----|-----------------|----------------|--------|-------|
                            x2               x2       x2       x2

|-------|----------------|
|-------|----------------|
|-------|----------------|
|12^(13)|-11--12-12^(13)-|
|-------|----------------|
|-------|----------------|
    1st               x15
(Ways of....)
|---------------------------------------|
|---------------------------------------|
|---------------------------------------|
|------910-9~---------910-7~------------|
|22----7/8\7~---22----7/8\5~----4/5-----|
|00-------------00--------------2/3-----|
 ..             ..                    x4

                        (S T A T U M!!)
|-------------------------------------------------------------------|
|-------------------------------------------------------------------|
|-------------------------------------------------------------------|
|10~--------------------------6~------------------------------------|
|-8~-------------2~-----------4~--------------8~--------------------|
|----------------0~---------------------------6~--------------------|
                                                                  x6

|--7/8-7h8h7---7/8-7h8h7---7-8-7--------7/8-7h8h7---7/8-7h8h7-------|
|9-----------9-----------9-------9-8~-9-----------9-----------9-8-8~|
|-------------------------------------------------------------------|
|-------------------------------------------------------------------|
|-------------------------------------------------------------------|
|-------------------------------------------------------------------|
                                                        (under 
|7^(9)~~~~------------------------------|
|--------------10^(12)~~~~~-----5~~~.---|
|---------------------------------------|
|---------------------------------------|
|---------------------------------------|
|---------------------------------------|
                                      x2         END.


Check Out DEATH WARP, With More Transcriptions On It:
               http://www.wam.umd.edu/~ekubica

Check Out 's Web Page, With More Transcriptions On It:
               /index.html
Comments