Arctic Monkeys - Youre So Dark Chords & Tabs

 

Youre So Dark Chords & Tabs

Arctic Monkeys Chords & Tabs

Version: 1 Type: Bass Tab 0 ratings
1 star 2 stars 3 stars 4 stars 5 stars
comments

Youre So Dark Bass Tab

Intro

G |----------------|----------------|----------------|-----------------|
D |----------------|----------------|----------------|-----------------|
A |2-2-2-0-2-5-0-2-|2-2-2-0-2-5-0-2-|------0-2-5-0-2-|2-2-2------------|
E |----------------|----------------|5-5-5-----------|-----------------| (x1)

Verse

G |----------------|----------------|----------------|-----------------|
D |----------------|----------------|----------------|-----------------|
A |2-2-2-0-2-5-0-2-|2-2-2-0-2-5-0-2-|------0-2-5-0-2-|2-2-2------------|
E |----------------|----------------|5-5-5-----------|-----------------| (x2)

Chorus

G |------------------------|------------------------|
D |------------------------|------------------------|
A |----5-5-2-2-2-0-2-5-0-2-|5-5-7-7-9-9-------------|
E |5-5---------------------|------------------------| (x1)
[ Tab from: http://www.guitartabs.cc/tabs/a/arctic_monkeys/youre_so_dark_btab.html ]
G |----------------|----------------|----------------|-----------------|
D |----------------|----------------|----------------|-----------------|
A |2-2-2-0-2-5-0-2-|2-2-2-0-2-5-0-2-|------0-2-5-0-2-|2-2-2------------|
E |----------------|----------------|5-5-5-----------|-----------------| (x1)

Bridge

G |----------------|----------------|----------------|-----------------|
D |----------------|----------------|----------------|-----------------|
A |------5-2-2-2---|------5-2-2-2---|------5-2-2-2---|-----------------|
E |3-3-3---------5-|3-3-3---------5-|3-3-3---------5-|3-3-3-5-2--------| (x1)

Outro

G |----------------|----------------|----------------|-----------------|
D |----------------|----------------|----------------|-----------------|
A |2-2-2-0-2-5-0-2-|2-2-2-0-2-5-0-2-|------0-2-5-0-2-|2-2-2------------|
E |----------------|----------------|5-5-5-----------|-----------------| (x1)

G |----------------------|
D |----------------------|
A |----5-5-2-2-0-2-5-0-2-|
E |5-5-------------------| (x3)

G |--------------|
D |--------------|
A |--------------|
E |5-5-3-3-2-2-2-| (x1) let final F# ring
Comments