Arctic Monkeys - You Probably Couldnt See For The Lights But You Were Looking Straight At Me Chords & Tabs

 

You Probably Couldnt See For The Lights But You Were Looking Straight At Me Chords & Tabs

Arctic Monkeys Chords & Tabs

Version: 1 Type: Bass Tab

You Probably Couldnt See For The Lights But You Were Looking Straight At Me Bass Tab

   
----------------------------------------------------------------------------
      You Probably Couldn't See For The Lights - Arctic Monkeys
----------------------------------------------------------------------------

Tabbed By : Chris H
e-mail: mellon_c@hotmail.com

Tuning: EADG

This is my first tab, and i don't play bass, but thought a bass tab for this would be needed 
So tell me what you think...


Intro is played 3 times, Bass comes in after first


Intro. 

Listen for correct timing 

G|-------------------------------------------------|
D|-------------------------------------------------| x2
A|-----------------------10------------10----------|
E|-7-7-7-7-7-7-7---10-10----10---10-10----10-------|

G|----------------------------|
D|----------------------------|
A|----------9-9-9-9-9-9-9-9---|
E|-x-7-x-7--------------------|


Verse.

G|---------------------------------|
D|---9-7---------------------------| x4
A|-------9-7--5-7-7--5-7--9-7------|
E|-7---------------------------10--|


Chorus 1.

G|--------------|
D|--------------| x8
A|------7-9-----|
E|-7-10-----10--|


Then :Intro x 2 

(After second intro)

G|-----------|
D|-----------|
A|-----------|
E|-7\1-1p0---|


Verse 


Chorus 2.

G|-------------------------------------------------------------------------|
D|-------------------------------------------------------------------------|
A|-7-7-7-7-7-7-7-7---------------------------------------------7-9---------|
E|-----------------10-10-10-10-10-10-10-10-7-7-7-7-7-7-7-7--10-----10------|
[ Tab from: http://www.guitartabs.cc/tabs/a/arctic_monkeys/you_probably_couldnt_see_for_the_lights_but_you_were_looking_straight_at_me_btab.html ]
G|-------------------------------------------------------------------------|
D|-------------------------------------------------------------------------|
A|-7-7-7-7-7-7-7-7---------------------------------------------7-9-12------|
E|-----------------10-10-10-10-10-10-10-10-7-7-7-7-7-7-7-7--10-------------|

G|-------------------------------------------------------------------------|
D|-------------------------------------------------------------------------|
A|-7-7-7-7-7-7-7-7---------------------------------------------7-9---------|
E|-----------------10-10-10-10-10-10-10-10-7-7-7-7-7-7-7-7--10-----10------|

G|-------------------------------------------------------------------------|
D|-------------------------------------------------------------------------|
A|-7-7-7-7-7-7-7-7-------------------------9-9-9-9-9-9-9-9-7---------------|
E|-----------------10-10-10-10-10-10-10-10-------------------10-9-7--------|


1:43           
G|---------|   
D|---------|
A|---9-----|
E|-7---10--|

1:46
G|-----------------------------|
D|-----------------------------|
A|---9----7-7-9---------9------|
E|-7---10---------10--7---10---|

G|----------------------------|
D|----------------------------| x2
A|-10-10-9-9-----9-9----------|
E|-----------7-7--------------|

G|-----------------------------------|
D|-----------------------------------|
A|-10-10-9-9-----9-9------5-5--------|
E|-----------7-7-----3-3------7------|


Outro. 

G|-------------------------------------|
D|-------------------------------------|
A|-------------------------------------|
E|-7-7-7-7-7-7-7-7-7-10-10-10-10-------|



| /  slide up
| \  slide down
| h  hammer-on
| p  pull-off
| ~  vibrato
| +  harmonic
| x  Mute note
===============================================================================