Arctic Monkeys - Still Take You Home Chords & Tabs

 

Still Take You Home Chords & Tabs

Arctic Monkeys Chords & Tabs

Version: 4 Type: Tab

Still Take You Home Tab

Ok, there are a couple versions of this tabbed but the solo is either wrong or 
so i thought i'd tab it.

e-------------------------------------------|
B-------------------------------------------|
G-------------------------------------------|
D----8--8--8--6-----------------------------| x2
A---------------8-7-6--6--9--9--9--9-8------|
E-6-----------------------------------------|
[ Tab from: http://www.guitartabs.cc/tabs/a/arctic_monkeys/still_take_you_home_tab_ver_4.html ]
e------------------------------------------------|
B------------------------6-6-6-------6-6-6-------|
G----------6---------6-8-------8-6-8-------8-6---|
D----8--8----8--8--8---------------------------8-|
A------------------------------------------------|
E-6----------------------------------------------|

e----------------------------------------------------|
B--------------------------------------------------6-|
G--------------------------------------6---------8---|
D-6-7-8---------6-----6-8-6--------6-8----8--6-8-----|
A--------6-7-8-----8--------8--6-8-------------------|
E----------------------------------------------------|

That should just about do it. This is a great band and one of my favourite songs, use it well.