Arctic Monkeys - Still Take You Home Chords & Tabs

 

Still Take You Home Chords & Tabs

Arctic Monkeys Chords & Tabs

Version: 2 Type: Bass Tab

Still Take You Home Bass Tab

G|-------------------|
D|-------------------|
A|------5-4------5-4-|    x6
E|--6-6-----6-66-----|

G|------------|
D|------------|
A|------------|
E|--6--6-6-6--|

G|------------------------------|
D|------------------------------|
A|--------------666666-999-888--|    x6
E|--66666666666-----------------|

G|---------------------------|
D|-------8-6-----------------|
A|-6666------8-4444-6/8-6----|
E|------------------------8--|

G|--------------------------------|
D|--------------------------------|
A|--------------------------------|
E|--6666666666666666666666666666--|

G|---------------------------|
D|-------8-6-----------------|
A|-6666------8-4444-6/8-6----|
E|------------------------8--|

G|------------------------------|
D|------------------------------|
A|--------------666666-999-888--|    x3
E|--66666666666-----------------|

G|---------------------------|
D|-------8-6-----------------|
A|-6666------8-4444-6/8-6----|
E|------------------------8--|

G|--------------------------------|
D|--------------------------------|
A|--------------------------------|
E|--6666666666666666666666666666--|

G|---------------------------|
D|-------8-6-----------------|
A|-6666------8-4444-6/8-6----|
E|------------------------8--|

G|----------------------------|
D|------8-8-6-----------------|
A|------------8-7-666-99999-8-|
E|--6-6-----------------------|
[ Tab from: http://www.guitartabs.cc/tabs/a/arctic_monkeys/still_take_you_home_btab_ver_2.html ]
G|----------------------------|
D|------8-8-6-----------------|
A|------------8-7-666-99999-8-|
E|--6-6-----------------------|

G|---------------------------------|
D|-----8-6-------------------------|
A|--6------8--4-6/8-6--------------|
E|--------------------8--6-4-6-4~--|

G|---------------------------------|
D|-----8-6-------------------------|
A|--6------8--4-6/8-6--------------|
E|--------------------8--6-4-6-4~--|

G|---------------------------|
D|-----6/8-6------6----------|
A|--6--------8-4~---8----4~--|
E|--------------------6------|

G|-----------------|
D|-----6/8-6-------|
A|--6--------8-4~--|
E|-----------------|

G|-------------------|
D|-------------------|
A|------5-4------5-4-|    x4
E|--6-6-----6-66-----|

G|-----------------------------------------------------|
D|-----------------------------------------------------|
A|------------------6-6-6-6-6-6-6-6--------------------|
E|--6-6-6-6-6-6-6-6------------------4444444444444444--|
      
G|---------------------------------------------------|
D|---------------------------------------------------|
A|------------------------------------6-6-6-6-6-6-6--|
E|--4444444444444444--6-6-6-6-6-6-6-6----------------|

G|------------------------------|
D|------------------------------|
A|--------------666666-999-888--|    x3
E|--66666666666-----------------|

G|--------------------------------|
D|--------------------------------|
A|--------------666666-999-888----|
E|--66666666666----------------6--|