Arctic Monkeys - Ritz To The Rubble Chords & Tabs

 

Ritz To The Rubble Chords & Tabs

Arctic Monkeys Chords & Tabs

Version: 1 Type: Tab 0 ratings
1 star 2 stars 3 stars 4 stars 5 stars
comments

Ritz To The Rubble Tab

   
Arctic Monkeys

From the ritz to the rubble.

Tabber : Dave Mullen

Email : charli_baltimore_inc@hotmail.com


*Intro / Verse*

Lead Guitar
E|-----------------------------------------------------------|
B|-----------------------------------------------------------|
G|--16~-14-11----11----------7~--------9~--------------------|
D|------------14----9---7-9-------7-9------------------------|
A|-----------------------------------------------------------|
E|-----------------------------------------------------------|


Bass
G|----------------------7------------------------------------|
D|----7-9----7-9----7/9-------9------7-----------------------|
A|----------------5-------7-7----5-5-------------------------|
E|--7------7-------------------------------------------------|

Rhythm
E|--7---10---12-12-12-12-12---7------------------------------|
B|--7---10---12-12-12-12-12---7------------------------------|
G|--8---11---12-12-12-12-12---8------------------------------|
D|--9---12---14-14-14-14-14---9------------------------------|
A|--9---12---14-14-14-14-14---9------------------------------|
E|--7---10---12-12-12-12-12---7------------------------------|
    B   D    Em               B

*Chorus*

[ Tab from: http://www.guitartabs.cc/tabs/a/arctic_monkeys/ritz_to_the_rubble_tab.html ]
Lead Guitar
E|-----------------------------------------------------------|
B|-----------------------------------------------------------|
G|-----------------------------------------------------------|
D|--------------------7-9-7-9--------------------------------|
A|--5-7-5-7--7-9-7-9--------------------14-12---9-7---7------|
E|-----------------------------------------------------------|

Bass
G|-----------------------------------------------------------|
D|--------------------7-9-7-9--------------------------------|
A|--5-7-5-7--7-9-7-9-----------------------------------------|
E|-----------------------------------------------------------|

Rhythm
E|-----------------------------------------------------------|
B|-----------------------------------------------------------|
G|-----------------------------------------------------------|
D|--------------------7-9-7-9-----------9-9-9-9-9-9-9-9------|
A|--5-7-5-7--7-9-7-9--------------------9-9-9-9-9-9-9-9------|
E|--------------------------------------7-7-7-7-7-7-7-7------|

*Bridge / Solo*

Rhythm

E|--7------------------10-------12---------|
B|--7------------------10-------12---------|
G|--8------------------11-------12---------|
D|--9-x16-really-fast--12-x-8 --14--x8-----|
A|--9------------------12-------14---------|
E|--7------------------10-------12---------|
Comments