Arctic Monkeys - On The Run From The Mi5 Chords & Tabs

 

On The Run From The Mi5 Chords & Tabs

Arctic Monkeys Chords & Tabs

Version: 1 Type: Bass Tab

On The Run From The Mi5 Bass Tab

   
-------------------------------------------------------------------------------
			     On the Run From the MI5 - Arctic Monkeys
-------------------------------------------------------------------------------

Tabbed By : vampires
e-mail: theblochead@hotmail.co.uk

Tuning: Standard EADG

Intro (kind of fast)
G|-----------------|---------------|
D|-----------------|---------------|
A|-----9-9-8-8-6-6-|---------------|
E|-8-8-------------|-6--6-5-5-5-5-5|X4

G|----------------------------------------|
D|----------------------------------------|
A|----------------------------------------|
E|-8--6-6-6--8--6-6-6--8--6-6-6----8(bend)|

Verse
"Come and take a leaf out of my book..."
G|------------------|
D|------------------|
A|----------8--6-6-6|
E|-8--8-8-8---------|X4

Chorus
"Let's go let's go let's go cmon!"
G|-------|-------------------|
D|-------|-------------------|
A|---8---|-------------------|
E|-------|-8--6-6-6--8--6-6-6|X3
[ Tab from: http://www.guitartabs.cc/tabs/a/arctic_monkeys/on_the_run_from_the_mi5_btab.html ]
"Give me your switch card I'll book some flights..." 
G|-----------------|-------------------|
D|-----------------|-------------------|
A|-(kinda off beat)|-------------------|
E|-4--4--4--4--4-4-|3-3-3-3-3-3-3-3-3-3|

Guitar link


Verse
"It's 1996 and I'm stuck at the bottom of a truck..."
G|------------------|
D|------------------|
A|----------8--6-6-6|
E|-8--8-8-8---------|X4

Chorus
"Let's go let's go let's go cmon!"
G|-------|-------------------|
D|-------|-------------------|
A|---8---|-------------------|
E|-------|-8--6-6-6--8--6-6-6|X3

"Give me your switch card I'll book some flights..." 
G|-----------------|-------------------|
D|-----------------|-------------------|
A|-(kinda off beat)|-------------------|
E|-4--4--4--4--4-4-|3-3-3-3-3-3-3-3-3-3|

Ending
G|-----------------|---------------|
D|-----------------|---------------|
A|-----9-9-8-8-6-6-|---------------|
E|-8-8-------------|-6--6-5-5-5-5-5|X4

G|----------------------------------------|
D|----------------------------------------|
A|----------------------------------------|
E|-8--6-6-6--8--6-6-6--8--6-6-6----8(bend)|

thanks. please rate (5 stars!!!)


| /  slide up
| \  slide down
| h  hammer-on
| p  pull-off
| ~  vibrato
| +  harmonic
| x  Mute note
===============================================================================