Arctic Monkeys - Mardy Bum Chords & Tabs

 

Mardy Bum Chords & Tabs

Arctic Monkeys Chords & Tabs

Version: 1 Type: Tab 0 ratings
1 star 2 stars 3 stars 4 stars 5 stars
comments

Mardy Bum Tab

INTRO

e-------------------------------------|
B-12-12-12--10------------------------|
G--------------11-9-------------------|
D-------------------12-9----9---------|
A------------------------12---12-9----|
E----------------------------------12-|


e----------------------------------------------------------------------------|
B-7--7-5-7-5--------5----7-7-7-5-7-5--------5-----------------------5--------|
G------------7--7-7------------------7--7-7---6-7-7-6-4-2-7-7-7-7-7----------|
D----------------------------------------------------------------------------|
A----------------------------------------------------------------------------|
E----------------------------------------------------------------------------|
[ Tab from: http://www.guitartabs.cc/tabs/a/arctic_monkeys/mardy_bum_tab.html ]
e----------------------------------------------------------------------------|
B-7--7-5-7-5--------5----7-7-7-5-7-5--------5---------------------------5----|
G------------7--7-7------------------7--7-7---6-7-7-6-4-6-7---7-7-7-7-7---7--|
D----------------------------------------------------------------------------|
A----------------------------------------------------------------------------|
E----------------------------------------------------------------------------|

SOLO

e----------------------------------------------------|
B----------------------------------------------------|
G-/9-7-6-7--6-9-7-6-7-6-----------------2------------|
D-----------------------9-11-9-7-4--2h4---4-2--------|
A----------------------------------------------------|
E----------------------------------------------------|

e----------------------------------------------------|
B---------------------------7------------7-----------|
G------7-7-7-7-7-9-6--6-7-9---9-7-4---7----9-7-9-7---|
D-0--------------------------------------------------|
A----------------------------------------------------|
E----------------------------------------------------|

chords to come, andeh x
Comments