Arctic Monkeys - Mardy Bum Chords & Tabs

 

Mardy Bum Chords & Tabs

Arctic Monkeys Chords & Tabs

Version: 1 Type: Bass Tab 0 ratings
1 star 2 stars 3 stars 4 stars 5 stars
comments

Mardy Bum Bass Tab

Artic Monkeys - Mardy Bum
Bass Tab

Intro [Main Riff x2]
Verse [No bass then Main Riff x1]
Chorus [x1]
Verse [Main Riff x2]
Chorus [x1]
Bridge
Guitar Solo [Main Riff x2]
Chorus [x1 - end on D]

Intro / Verse [Main Riff - Repeat for all verses]
G -------------------------------------------------------------------------------------|
D ---------------4--7-4--4--4-4-4-5--4-5--5--5-4-4-4-5--4-2--2--2-2-2------------------|
A --5--5--5-5-5------------------------------------------------------------------------|
E -------------------------------------------------------------------------------5--5--|
[ Tab from: http://www.guitartabs.cc/tabs/a/arctic_monkeys/mardy_bum_btab.html ]
Chorus (Laughs n jokes around...)
G --------------------------------------------------------------------------|
D ----------------------------4-2----------------------------4-2------------|
A --5---5--7---5-5-0--2-2-----5---5--7---5-5-02-2-----5----7---------------|
E --------------------------------------------------------------------------|

Bridge (Sorry I was late...)
G--------------------------------------------------------------------------|
D -------------------------------------------------------------------------|
A --4-4-4-4-4-4-7-4-5-5-5-5-5-5-5-5-4-4-4-4-4-4-7-4-5-5-5-5-5-5-5-5-4-4-4--|
E -------------------------------------------------------------------------|

------------------------------------------------------------------------------|
------------------------------------------------------------------------------|
--4-4-4-7-4-5-5-5-5-5-5-5-5-4-4-4-4-4-4-7-4-5-5-5-5-7-7-7-7-------------------|
------------------------------------------------------------------------------|
Comments