Arctic Monkeys - Leave Before The Lights Come On Chords & Tabs

 

Leave Before The Lights Come On Chords & Tabs

Arctic Monkeys Chords & Tabs

Version: 4 Type: Bass Tab

Leave Before The Lights Come On Bass Tab

   
--------------------------------------------------------------------------- 
               LEAVE BEFORE THE LIGHTS COME ON - Arctic Monkeys
---------------------------------------------------------------------------

Artist: Arctic Monkeys
Tabbed By : Hurm
Tuning: standard 4-string (EADG)

Other tabs were close but not 100% accurate, this is how the song is played:


Intro
G|-----------------------------------------------------------------------------|
D|---------------------------9977----------------------------------------------|
A|-------------------7-7-777-----101077--5-5-555--5-5-555--5-5-555--5-5-555----|
E|-8-8-888--8-8-888------------------------------------------------------------|

Verse
G|----------------------------------------------------------------------|
D|----------------------------------------------------------------------|
A|-------------------7-7-777-7-777--5-5-555--5-5-555--5-5-555--5-5-555\-|
E|-8-8-888--8-8-888-----------------------------------------------------|

G|----------------------------------------------------------------------|
D|----------------------------------------------------------------------|
A|-------------------7-7-777-7-777--5-5-555--5-5-555--5-5-555--55555555-|
E|-8-8-888--8-8-888-----------------------------------------------------|

G|----------------------------------|
D|----------------------------------|
A|-77-777-77777777755-555-555555555-| 2x
E|----------------------------------|

G|------------------------------------------------------------------|
D|------------------------------------------------------------------|
A|-77777-----------555555555-------77777-----------5555555555555555-|
E|------------------------------------------------------------------|

Break, then: 
G|(1:10)---------------------------------------------------------|
D|------------------9---9977---------7------7------7-------7-----|
A|--10------10-----7-7~-----101077105-5~55-5-5~55-5-5~55--5-5~55-|
E|-8--8~88-8--8~88-----------------------------------------------|
[ Tab from: http://www.guitartabs.cc/tabs/a/arctic_monkeys/leave_before_the_lights_come_on_btab_ver_4.html ]
Verse
G|-----------------------------------------------------------|
D|------------------9------9------7------7------7------7-----|
A|--10------10-----7-7~77-7-7~77-5-5~55-5-5~55-5-5~55-5-5~55-| 2x
E|-8--8~88-8--8~88-------------------------------------------|

G|------------------------------|
D|---------------------------77-|
A|-7-7~77-7-7~7655-5~55-5-5~5---|
E|--7------7------5------5------|

G|---------------------------------------------------------------------------------|
D|---------------------------------------------------------------------------------|
A|-7-7~77-7-7~7765-5~55-5-5~5567-7-----------5-5~5555------7-7-----------5-55------|
E|--7------7------5------5------7-------------5-------------7----------------------|

Bridge
G|-------------------------------------------------------------------------|
D|-------------------------------------------------------------------------|
A|-----------------------------------------------------------------8-8-8-8-|
E|-8-8-8-8-8-8-8-8-5-5-5-5-5-5-5-5/10-10-10-10\5-5-5-5/10-10-10-10---------|

G|------------------------------------------------------------------------------------------|
D|------------------------------------------------------------------------/1515151515151515-|
A|----------------------------------------------------------------88888888------------------|
E|-8-8-8-8-8-8-8-8-5-5-5-5-5-5-5-5/10-10-10-10\5-5-5-5/10-10-10-10--------------------------|

Break, then:
G|(3:09)-----|
D|-----------|
A|-/7777777\-|
E|-----------|

G|---------------------------------------------------------------------|
D|------------------------------------------------------------------7\-|
A|---------------------------------------------------------710710710---|
E|-55-555-55555555533-333-33333333311-111-11111111100-000-0------------|

G|----------------------------------------------------------------------|
D|----------------------------------------------------------------------|
A|----------------------------------------------------------------------|
E|-55555555555555553333333333333333111111111111111100000000000000005~~\-|

| /  slide up
| \  slide down
| ~  let ring

===========================================================================