Arctic Monkeys - From The Ritz To The Rubble Chords & Tabs

 

From The Ritz To The Rubble Chords & Tabs

Arctic Monkeys Chords & Tabs

Version: 2 Type: Bass Tab

From The Ritz To The Rubble Bass Tab

Verse
G-------------------------7------------|
D------7-9----7-9-----7/9------9----7--|
A------------------5--------77---55----|x6
E---7-------7--------------------------|

Chorus
G------------------------------------------------|
D--------------------7-9-7-9---------------------|
A--5-7-5-7--7-9-7-9------------------------------|x4
E-----------------------------7777777777777777---|

Verse x6

Chorus x6
[ Tab from: http://www.guitartabs.cc/tabs/a/arctic_monkeys/from_the_ritz_to_the_rubble_btab_ver_2.html ]
Bridge1
G---------------------------------------|
D---------------------------------------|
A-------------------55555555-77777775---|x6
E--77777777777777-----------------------|

Brige2
G---------------------------------------|
D---------------------------------------|
A-------------------555-555--777-7774---|x2
E--777-777-777-777----------------------|

Bridge 1 x4

Verse x1

This is pretty correct im not to sure on the chorus though