Arctic Monkeys - Dancing Shoes Chords & Tabs

 

Dancing Shoes Chords & Tabs

Arctic Monkeys Chords & Tabs

Version: 2 Type: Tab 0 ratings
1 star 2 stars 3 stars 4 stars 5 stars
comments

Dancing Shoes Tab

   
Arctic Monkeys

Dancing Shoes


*Intro*

"get on your dancing shoes"

(Guitar and Bass kicks in at "dancing")

Guitar 1

  (Palm Muted)
e|------------------------------------------------------|
B|------------------------------------------------------|
G|------------------------------------------------------|
D|------------------------------------------------------|
A|---------------------------4-4-4--6-4---7-7-7--9-7----| x4
E|-4-4-4--2-4---4-4-4--2-4------------------------------|

  Bass
G|------------------------------------------------------|
D|-----4--1---------4--1--------------------------------|
A|----------2------------2---4-4-4--6-4---7-7-7--9-7----| x4
E|-4-4----------4-4-------------------------------------|

*Break*


Guitar 1

e|------------------------------------|
B|------------------------------------|
G|-------6--4-------------------------|
D|-6--4--6--4--6----------------------|
A|-6--4--4--2--6----6-6--6-6----------| x4
E|-4--2--------4----4-4--4-4----------|
                   |--Muted-|

                   / "The only reason that you came"

Guitar 2

e|------------------------------------|
B|------------------------------------|
G|-------6--4-------------------------|
D|-6--4--6--4--6----------------------|
A|-6--4--4--2--6----------------------| x4
E|-4--2--------4----------------------|


*Verse 2*

"Lights are flashing"

(remember this time there is NO palm muting)
e|-----------------------------------------------------|
B|-----------------------------------------------------|
G|-----------------------------------------------------|
D|-----------------------------------------------------|
A|---------------------------4-4-4--6-4---7-7-7--9-7---| x4
E|-4-4-4--2-4---4-4-4--2-4-----------------------------|


  Bass
G|-----------------------------------------------------|
D|-----------------------------------------------------|
A|---------------------------4-4-4--6-4---7-7-7--9-7---| x4
E|-4-4-4--2-4---4-4-4--2-4-----------------------------|

*Break*


Guitar 1
[ Tab from: http://www.guitartabs.cc/tabs/a/arctic_monkeys/dancing_shoes_tab_ver_2.html ]
e|------------------------------------|
B|------------------------------------|
G|-------6--4-------------------------|
D|-6--4--6--4--6----------------------|
A|-6--4--4--2--6----6-6--6-6----------| x4
E|-4--2--------4----4-4--4-4----------|
                   |--Muted-|

                   / "The only reason that you came"

Guitar 2

e|------------------------------------|
B|------------------------------------|
G|-------6--4-------------------------|
D|-6--4--6--4--6----------------------|
A|-6--4--4--2--6----------------------| x4
E|-4--2--------4----------------------|

*solo*

(I wish i could play it)


*Outro*

"Get on your dancing shoes, you sexy little swine"

  Bass
G|-----------------------------------------------------|
D|-----4--1---------4--1-------------------------------|
A|----------2------------2---4-4-4--6-4---7-7-7--9-7---|
E|-4-4----------4-4------------------------------------|


(then guitar comes in for the second loop of the riff, with this)

e|-----------------------------------------------------|
B|-----------------------------------------------------|
G|-----------------------------------------------------|
D|-----4--1---------4--1-------------------------------|
A|----------2------------2---4-4-4--6-4---7-7-7--9-7---|
E|-4-4----------4-4------------------------------------|

(then both guitars do this)
Mute the chord in between strums

e|-----------------------------------|
B|-----------------------------------|
G|------------------6-6-6-6--9-9-9-9-|
D|-6-6-6-6-6-6-6-6--6-6-6-6--9-9-9-9-|
A|-6-6-6-6-6-6-6-6--4-4-4-4--7-7-7-7-| x2
E|-4-4-4-4-4-4-4-4-------------------|
   G#               C#       E

Guitar 1
e|------------------------------------------------------|
B|------------------------------------------------------|
G|------------------------------------------------------|
D|------------------------------------------------------|
A|-6-6-6--4-6---6-6-6--4-6---6-6-6--4-6---6-6-6--4-6~~--|
E|-4-4-4--2-4---4-4-4--2-4---4-4-4--2-4---4-4-4--2-4~~--|

Bass
G|------------------------------------------------------|
D|------------------------------------------------------|
A|------------------------------------------------------|
E|-4-4-4--2-4---4-4-4--2-4---4-4-4--2-4---4-4-4--2-4~~--|
Comments