Arctic Monkeys - Cigarette Smoke Chords & Tabs

 

Cigarette Smoke Chords & Tabs

Arctic Monkeys Chords & Tabs

Version: 1 Type: Tab 0 ratings
1 star 2 stars 3 stars 4 stars 5 stars
comments

Cigarette Smoke Tab

Intro:
e--------------------------------|
B--------------------------------|
G-----------------------------7b-|
D-7-7-7--7-7-7--7-7-7--7-7-7--7b-|
A-7-7-7--7-7-7--7-7-7--7-7-7--5b-|
E-5-5-5--5-5-5--5-5-5--5-5-5-----|

Verse:
e----------------------------|
B----------------------------|
G----------------------7-7-7-|
D-7-7-7--7-7-7--3-3-3--7-7-7-|
A-7-7-7--7-7-7--3-3-3--5-5-5-|
E-5-5-5--5-5-5--1-1-1--------|

Chorus:
e-----------------------------------|
B-----------------------------------|
G--------5-5-5--9-9-9--9-7-9-12-9-7-|
D-7-7-7--5-5-5--9-9-9--9-7-9-12-9-7-|
A-7-7-7--3-3-3--7-7-7--7-5-7-10-7-5-|
E-5-5-5-----------------------------|
[ Tab from: http://www.guitartabs.cc/tabs/a/arctic_monkeys/cigarette_smoke_tab.html ]
Bridge:
e-------------------------------------|
B-------------------------------------|
G---------555555--999999999999999-----|
D-777777--555555--999999999999999-----|
A-777777--333333--777777777777777-----|
E-555555------------------------------|

e--------------------------------------|
B--------------------------------------|
G---------555555--999999--9-7-9-12-9-7-|
D-777777--555555--999999--9-7-9-12-9-7-|
A-777777--333333--777777--7-5-7-10-7-5-|
E-555555-------------------------------|

Outro:
e------------------------------|
B------------------------------|
G-9-7-9-12-9-7-9-7-9-12-9-7----|
D-9-7-9-12-9-7-9-7-9-12-9-7--7-|
A-7-5-7-10-7-5-7-5-7-10-7-5--7-|
E----------------------------5-|

Song Order:
Intro x2
Verse x4
Chorus x2
Intro x2
Verse x4
Chorus x2
Verse x2
Bridge
Chorus x4
Outro
Comments