Arctic Monkeys - Cigarette Smoke Chords & Tabs

 

Cigarette Smoke Chords & Tabs

Arctic Monkeys Chords & Tabs

Version: 1 Type: Bass Tab

Cigarette Smoke Bass Tab

   
Arctic Monkeys
Cigarette Smoke
Tuning: Standard (G D A E)

It's not too hard too play, it's not so fast and you've got to have the hang of it,
but it is fun to play. Lot of sliding, lots of fun. This song is great and you just
have to give it a try. I don't know if I have all the little riffs from in between,
but please e-mail me as you find more or place a comment.

Wait one bar of the guitar and then play as followed: Slide up is until 10 and slide
down is until 1, so remember that when playing. It just sounds better.

Intro
G|-------------------------|
D|-------------------------|
A|-------------------------|
E|-555\\-555\\-555\\-555//-| 2x \\ & //= (go up/down slowly)

Verse
G|------------------------|
D|------------------------|
A|----------------555-----|
E|-555\-555\-111----------| 2x

G|-----75------------------|
D|---------------------75--|
A|-----------------555---75|
E|-555---555\-111----------|

G|-----------------------|
D|-------------------75--|
A|----------------555--75|
E|-555\-555\-111---------|

Chorus
G|------------------------------|
D|--------------------------5---|
A|-0000-0-3333-3-7777-7--757-75-|
E|------------------------------| 2x

Post-Chorus
G|----------------------------|
D|----------------------------|
A|--------------------5-------|
E|-555\\-555\\-555-757--555-5/|2x /= (slide a litter faster than the others)
[ Tab from: http://www.guitartabs.cc/tabs/a/arctic_monkeys/cigarette_smoke_btab.html ]
Verse2
G|----------------------------|
D|----------------------------|
A|---------------------555----|
E|-555---555---111------------|

G|----------------------------|
D|------------------------75--|
A|---------------------555--75|
E|-555---555---111------------|

G|----------------------------|
D|----------------------------|
A|---------------------555----|
E|-555---555---111------------|

G|-----------5---75-----------|
D|---------57------75-----75--|
A|--------------------555---75|
E|-555--555---111-------------|

Chorus
G|------------------------------|
D|--------------------------5---|
A|-0000-0-3333-3-7777-7--757-75-|
E|------------------------------| 2x

Bass Solo
G|------------------------------|
D|--------------------------75--|
A|-----------------------555--75|
E|-555---555\\---111------------| 2x

Bridge
G|------------------------------|
D|------------------------------|
A|------------------------------|
E|------------------------------|

G|------------------------------|
D|--------------------------5---|
A|-----------------------757-75-|
E|------------------------------|

Chorus
G|------------------------------|
D|--------------------------5---|
A|-0000-0-3333-3-7777-7--757-75-|
E|------------------------------| 3x

G|---------------------------------------------|
D|--------------------------5------5------5----|
A|-0000-0-3333-3-7777-7--757-75-757-75-757-750~|
E|---------------------------------------------|