Arctic Monkeys - Choo Choo Chords & Tabs

 

Choo Choo Chords & Tabs

Arctic Monkeys Chords & Tabs

Version: 1 Type: Bass Tab

Choo Choo Bass Tab

Verse

G|-----------------------|
D|-----------------------|  Repeat as many is needed
A|---9-7-8-7-------------|
E|-------------9-7-9-----|

Pre Chorus

[ Tab from: http://www.guitartabs.cc/tabs/a/arctic_monkeys/choo_choo_btab.html ]
G|-------------------------------------------------------|
D|-------------------------------------------   Repeat 2-|
A|-------------------------------------------------------|
E|-99999----99999----777777-888888-----------------------|

Chorus

G|--------------------------------|
D|--------------------------------|  Repeat 4
A|-----9-7-777-9-7----------------|
E|-99----------------9-7----------|

Verse as many is needed

Pre-Chorus  2

Chorus  4

Break

Chorus- Repeat as many is needed

Ending

G|------------------|
D|------------------|
A|-----------7------|
E|-9-9-9-9----------|