Archive - Vaillant Acoustic Chords & Tabs

 

Vaillant Acoustic Chords & Tabs

Archive Chords & Tabs

Version: 1 Type: Tab 0 ratings
1 star 2 stars 3 stars 4 stars 5 stars
comments

Vaillant Acoustic Tab

   
----------------------------------------------------------------------------
			     VAILLANT (ACOUSTIC) - ARCHIVE
----------------------------------------------------------------------------
Tabbed by: paul brizard - Frank_pierce
Email:pb_platypus@yahoo.com

Hi, Archive is a great british band and it's a pity there are so few tabs on this
site... so here is the vaillant's tab from the album vaillant ost, I'm pretty sure
it's right but corrections or suggestions are welcome...

Tuning: EADGBe

             Dm                              Am
e|------------1----------------------------------------------------------|
B|--------3-----3---3-------------------------1--------------------------|
G|------2---2-----2------(x8)------------2-------2---2-----(x4)----------|
D|----0--------------------------------2---2-------2---------------------|
A|-----------------------------------0-----------------------------------|
E|-----------------------------------------------------------------------|

then play Dm x4 Am x4
[ Tab from: http://www.guitartabs.cc/tabs/a/archive/vaillant_acoustic_tab.html ]
               C                                 G
e|-----------------------------------------------------------------------|
B|--------------1---------------------------------3----------------------|
G|---------0-------0---0-----(x2)------------4-------4---4----(x2)-------|
D|-------2---2-------2---------------------5---5-------5-----------------|
A|-----3---------------------------------5-------------------------------|
E|-----------------------------------------------------------------------|
               Am                         C                  G
e|-----------------------------------------------------------------------|
B|------------1---------------------------1------------------3-----------|
G|--------2------2---2----(x2)--------0------0---0------4------4---4-----|
D|------2---2------2----------------2---2------2------5---5------5-------|
A|----0---------------------------3-----------------5--------------------|
E|-----------------------------------------------------------------------|
               Am                         B#                  G
e|----------------------------------------3------------------------------|
B|-------------1----------------------5------5---5------------3----------|
G|---------2------2---2----(x2)-----5---5------5---------4------4---4----|
D|-------2---2------2-------------5--------------------5---5------5------|
A|-----0---------------------------------------------5-------------------|
E|-----------------------------------------------------------------------|

End on Am

voila, have fun!

============================================================================
Comments