Archers Of Loaf - Wrong Chords & Tabs

 

Wrong Chords & Tabs

Archers Of Loaf Chords & Tabs

Version: 1 Type: Tab 0 ratings
1 star 2 stars 3 stars 4 stars 5 stars
comments

Wrong Tab

   
Tabbed by:CMM
Email:colin_michael_muppet@hotmail.com

Tuning:Standard

This is for all those people who watched anthology and and wanted to play that "Steve Berra song".

(Intro Guitar One)
e|-------------------------------------|
B|-------------------------------------|
G|-------------------------------------|
D|-------------------------------------|
A|-9---9--9-9---9----7---7--7-7--11----|
E|-7-0-7--7-7-0-7-0--5-0-5--5-5-0-9-0--|

(Intro Guitar 2/Prechrous One)
e|-12----12----12----12----11----11----11----11-----|
B|----12----12----12----12----12----12----12----12--|
G|--------------------------------------------------|
D|--------------------------------------------------|
A|--------------------------------------------------|
E|--------------------------------------------------|

(Verse Guitar One)
e|--------------------------------------------------------|
B|--------------------------------------------------------|
G|--------------------------------------------------------|
D|-2--2--x-x-x-x--7--7--x-x-x-x--6--6--x-x-x-x--4--4--x-x-|
A|-2--2--x-x-x-x--7--7--x-x-x-x--6--6--x-x-x-x--4--4--x-x-|
E|-0--0--x-x-x-x--5--5--x-x-x-x--4--4--x-x-x-x--2--2--x-x-|

(Verse Guitar Two)
e|-14--12-12--14--12-12--14-12--14--11-11--14--11-11--14-11-|
B|----------------------------------------------------------|
G|----------------------------------------------------------|
D|----------------------------------------------------------|
A|----------------------------------------------------------|
E|----------------------------------------------------------|

(Prechorus One)
e|------------------------------|
B|------------------------------|
G|------------------------------|
D|-2--2-2-2--4--7-6-7-6-7-6-7-6-|
A|-2--2-2-2--4--7-6-7-6-7-6-7-6-|
E|-0--0-0-0--2--5-4-5-4-5-4-5-4-|

[ Tab from: http://www.guitartabs.cc/tabs/a/archers_of_loaf/wrong_tab.html ]
(Prechorus Two/Chorus)
e|------------------------------------------------------------------------|
B|------------------------------------------------------------------------|
G|------------------------------------------------------------------------|
D|11-11-11-11-11-11-11-11-9-9-9-9-9-9-9-9-7-7-7-7-7-7-7-7-9-9-9-9-9-9-9-9-|
A|11-11-11-11-11-11-11-11-9-9-9-9-9-9-9-9-7-7-7-7-7-7-7-7-9-9-9-9-9-9-9-9-|
E|-9--9--9--9--9--9--9--9-7-7-7-7-7-7-7-7-5-5-5-5-5-5-5-5-7-7-7-7-7-7-7-7-|

e|------------------------------------------------|
B|------------------------------------------------|
G|------------------------------------------------|
D|4-4-4-4-4-4-4-4-7-7-7-7-7-7-7-7-2-2-2-2-2-2-2-2-|
A|4-4-4-4-4-4-4-4-7-7-7-7-7-7-7-7-2-2-2-2-2-2-2-2-|
E|2-2-2-2-2-2-2-2-5-5-5-5-5-5-5-5-0-0-0-0-0-0-0-0-|

Note: Palm Muted for the prechorus.

(Solo) (3:04)
e|-\12~------------14~-12~-----------------12----12------------12----------|
B|--------------------------14~---------------14---------------------------|
G|---------------------------------------------------14------14------16p14-|
D|-------------------------------------------------------------------------|
A|-------------------------------------------------------------------------|
E|-------------------------------------------------------------------------|

e|----------------------|
B|----------------------|
G|-13--------13/16------|
D|----14--14------------|
A|----------------------|
E|----------------------|


(Ends on)
e|---------|
B|---------|
G|---------|
D|-7-6-4-2-|
A|-7-6-4-2-|
E|-5-4-2-0-|



| /  slide up
| \  slide down
| h  hammer-on
| p  pull-off
| ~  vibrato
| +  harmonic
| x  Mute note
===============================================================================
Comments