Archers Of Loaf - South Carolina Chords & Tabs

 

South Carolina Chords & Tabs

Archers Of Loaf Chords & Tabs

Version: 2 Type: Tab 0 ratings
1 star 2 stars 3 stars 4 stars 5 stars
comments

South Carolina Tab

   
Archers of Loaf
"South Carolina"
The Speed of Cattle
Bachmann/Gentling/Johnson/Price

Eric Bachmann's guitar is tuned (low to high) high E, low E, A, D, G, B
His guitar is notated standard here. To play it in his tuning, play the same fret on the high E as is 
on the low E.
Eric Johnson's is in standard (EADGBE) tuning.

Intro (Bachmann):
Slowly, with fuzzy distortion
(B5)
--------------------------------------------------------------------------------------------|
--------------------------------------------------------------------------------------------|
-8--8--8-8-8--8-8-8--8b10--11-11-11-11-11-11-8-9-9-9-9-9-9-9-9--8--8--8-8--7--7--7--7-7-7---|
-9--9--9-9-9--9-9-9--9------9--9--9--9--9--9-9-7-7-7-7-7-7-7-7--9--9--9-9--8--8--8--8-8-8---|
-------(0)----------------------------------------------------------------------------------|
--------------------------0-----------------------------------------------------------------|

(Strums aren't exact here.)

Verse:
        Full volume
        (E5)           A                B         Bb         B                E
       "Break off my..."
------|-----------------------------------------------------|-----------------------------|
------|------------------------------------------15-15-15-15|-----------------------------|
10b11-|-1-1-1-1-1-1-1--6-6-6-6-6-6-6-6--8-8-8-8--15-15-15-15|-8-8-8-8-8-8-8-8-1-1-1-1-1-1-|
--9---|-2-2-2-2-2-2-2--7-7-7-7-7-7-7-7--9-9-9-9--15-15-15-15|-9-9-9-9-9-9-9-9-2-2-2-2-2-2-|
------|-2-2-2-2-2-2-2--7-7-7-7-7-7-7-7--9-9-9-9--13-13-13-13|-9-9-9-9-9-9-9-9-2-2-2-2-2-2-|
------|-0-0-0-0-0-0-0--5-5-5-5-5-5-5-5--7-7-7-7-------------|-7-7-7-7-7-7-7-7-0-0-0-0-0-0-|

This repeats over and over, until the 2nd "doo doo doo" line, where EJ goes:
[ Tab from: http://www.guitartabs.cc/tabs/a/archers_of_loaf/south_carolina_tab_ver_2.html ]
  (Strum alot)
-----------------------------------------------|
--12------------7---------12--------7----------|
-14b16---------9b11------14b16-----9b11--------|
-----------------------------------------------|
-----------------------------------------------|
-----------------------------------------------|

Breakdown (both guitars)

                                                                  "South............Carolina..."
------X-X-X-X-----X-X-X-X-----X-X-X-X-----X-X-X-X-----X-X-X-X-----X-X-X-X-----/X-X-X-XX-------|
------X-X-X-X-----X-X-X-X-----X-X-X-X-----X-X-X-X-----X-X-X-X-----X-X-X-X-----/X-X-X-XX-------|
------X-X-X-X-----X-X-X-X-----X-X-X-X-----X-X-X-X-----X-X-X-X-----X-X-X-X-----/X-X-X-XX-------|
--9-9---------9-9---------9-9---------9-9---------9-9---------9-9---------9-9-----------------|
----------------------------------------------------------------------------------------------|
----------------------------------------------------------------------------------------------|

Both continue for 8 bars. Then EB continues verse chords, while EJ does this:


--------------------------------------------------------------------------------------------------|
----11-12--11-12--11-12--11-12--11-12----12--(hold)-15----10--------------------------------------|
-/14-----14-----14-----14-----14-----14-14b16------17b19-12b14--12--11-11-12-11-12-11-10-10-11-10-|
--------------------------------------------------------------------------------------------------|
--------------------------------------------------------------------------------------------------|
--------------------------------------------------------------------------------------------------|

Then EJ plays the verse riff with EB for 4 bars.

The last chord:
  B
--------------------------------------------------------------------|
--7-----------------------------------------------------------------|
--8-----------------------------------------------------------------|
--9-----------------------------------------------------------------|
--9-----------------------------------------------------------------|
--7-----------------------------------------------------------------|

Due to space problems, all strums needed aren't there. Listen to the CD for correct feel.
Comments