Arch Enemy - Ravenous Chords & Tabs

 

Ravenous Chords & Tabs

Arch Enemy Chords & Tabs

Version: 1 Type: Bass Tab 0 ratings
1 star 2 stars 3 stars 4 stars 5 stars
comments

Ravenous Bass Tab

Song-Ravenous
Album-Wages of Sin
Tabber-Chad Richards(GODSORROW34@YAHOO.COM)

                 5 String Standard tuning - BEADG

Intro/Verse
G||-----------------|-----------------|-----------------|-----------------|
D||-----------------|-----------------|-----------------|-----------------|
A||-----------------|-----------------|-----------------|-----------------|
E||-----------------|-----------------|-----------------|-----------------|
B||-1-1-1-1-1-1-1-1-|-1-1-1-1-1-1-1-1-|-1-1-1-1-1-1-1-1-|-1-1-1-1-1-1-1-1-|


Bridge
--------------------|-----------------|--------------------|----------------|
--------------------|-----------------|--------------------|----------------|
--------------------|-----------------|--1------1--1-------|----------------|
-----------------0--|--1--------------|--------------------|-----------3----|
--1------1--1-------|-----------------|-----------------3--|--4-------------|


--------------------|-----------------|--------------------|----------------|
--------------------|-----------------|--------------------|----------------|
--------------------|-----------------|--1------1--1-------|----------------|
-----------------0--|--1--------------|--------------------|-----------3----|
--1------1--1-------|-----------------|-----------------3--|--4-------------|

Verse

Bridge


Chorus
-----------------------|------------------|-------------------|-------------|
-----------------------|------------------|-------------------|-------------|
-----------------------|------------------|--4----------------|-------------|
--1----1-------3----4--|------------------|-------------------|--4----3---3-|
------------1----------|------------------|-------------------|-------------|

Verse

Bridge

Chorus


Inturlude
---------10----10-------|---------10----10--------|---------10----10--------|
--8---------------------|--8----------------------|--8----------------------|
---------------------9--|---------------------10--|---------------------10--|
------------------------|-------------------------|-------------------------|
------------------------|-------------------------|-------------------------|

---------10----10--------|---------10----10-------|---------10----10--------|
--8----------------------|--8---------------------|--8----------------------|
-------------------11----|---------------------9--|---------------------10--|
-------------------------|------------------------|-------------------------|
-------------------------|------------------------|-------------------------|
[ Tab from: http://www.guitartabs.cc/tabs/a/arch_enemy/ravenous_btab.html ]
---------10----10--------|---------10----10--------|---------10----10-------|
--8----------------------|--8----------------------|--8---------------------|
---------------------10--|-------------------11----|---------------------9--|
-------------------------|-------------------------|------------------------|
-------------------------|-------------------------|------------------------|

---------10----10--------|---------10----10--------|---------10----10-------|
--8----------------------|--8----------------------|--8---------------------|
---------------------10--|---------------------10--|-------------------11---|
-------------------------|-------------------------|------------------------|
-------------------------|-------------------------|------------------------|

----------------------------------|--------------------------|
----------------------------------|--------------------------|
----------------------------------|--------------------------|
----------------------------------|--------------------------|
--11--11--11--11--11--11--11--11--|--7--7--7--7--7--7--7--7--|


--------------------------|-------------------|
--------------------------|-------------------|
--------------------------|-------------------|
--4--4--4--4--4--4--4--4--|--3----------------|
--------------------------|-------------------|

Chorus

Rest (guitar plays Verse riff)

Fill 1
|--------------------|
|--------------------|
|--------------------|
|--------------0--1--|
|--1--2--3--4--------|


Chorus


Outro
---------------------|----------------------------------|
---------------------|----------------------------------|
---------------------|----------------------------------|
--1------0--0--------|--1-1-1-1-1-1-1-1-1-1-1-1-1-1-1-1-|
---------------------|----------------------------------|

----------------------------------|----------------------------------|
----------------------------------|----------------------------------|
----------------------------------|----------------------------------|
--1-1-1-1-1-1-1-1-1-1-1-1-1-1-1-1-|--1-1-1-1-1-1-1-1-1-1-1-1-1-1-1-1-|
----------------------------------|----------------------------------|

----------------------------------|-3-1-0-----------------------------|
----------------------------------|-------3-2-------------------------|
----------------------------------|-----------4-3-1-------------------|
--1-1-1-1-1-1-1-1-1-1-1-1-1-1-1-1-|-----------------4-3-1-0-----------|
----------------------------------|-------------------------2-1-------|

-------------------|
-------------------|
-------------------|
--1----------------|
-------------------|

THATS IT
Comments