Arch Enemy - Dead Bury Their Dead Chords & Tabs

 

Dead Bury Their Dead Chords & Tabs

Arch Enemy Chords & Tabs

Version: 1 Type: Tab 0 ratings
1 star 2 stars 3 stars 4 stars 5 stars
comments

Dead Bury Their Dead Tab

ARCH ENEMY - DEAD BURY THEIR DEAD
>From the Album - WAGES OF SIN

Version 1.0 - OCTOBER 2001

Transcribed by: Jim Kekonius
Email: korpze@hotmail.com

.  - palm mute                    /  - slide up to
\  - slide down to                ~  - vibrato
h  - hammer on                    b  - bend
p  - pull off                          Suffixes for bend
ph - pinch harmonic                        f - full bend    h - half bend
*  - see comment                           r - release      t - tap bend
X  - percussion mute                       ~ - vibrato bend
@  - slight palm mute             () - ghost note, sustained note
"  - tremolo pick until next note

Tune Down 2 steps to C

*Hmmph...I thought Arch Enemy tuned to B. But noooooo! They gotta make it
a pain in the ass for people with sevenstrings. These are just the riffs,
if you want the solos, you are on your own.*

 RIFF 1                           
|---------------------------------------------------------------|
|---------------------------------------------------------------|
|---------------------------------------------------------------|
|---------9-----10---7-----7/9----------9-----10----------------|
|---------7-----8----5-----5/7----------7-----8----10-----10/12-|
|-0-0-0-0---0-0----0---0-0------0-0-0-0---0-0----0-8--0-0-8-/10-|
  . . . .   . .    .   . .      . . . .   . .    .    . .
[ Tab from: http://www.guitartabs.cc/tabs/a/arch_enemy/dead_bury_their_dead_tab.html ]
RIFF 2
|-----------------------------------------------|
|-----------------------------------------------|
|-----------------------------------------------|
|-----------------------------------------------|
|-55-5h7-5h7-5h7-5h7-5h7-55-7h8-7h8-3h5-3h5-3h5-|
|-----------------------------------------------|
  ..                     ..

RIFF 3
|-------------------------|
|-------------------------|
|-------------------------|
|----2"-1"-------2"-1"----|
|----------3"-------------|
|-0"----------0"-------1"-|

RIFF 4
|-----------------------------------------------------------------|
|-----------------------------------------------------------------|
|-----------------------------------------------------------------|
|---------222-222-111-111-----------------222-222-111-111---------|
|-------------------------333-333---------------------------------|
|-000-000-------------------------000-000-----------------111-111-|
  ... ... ... ... ... ... ... ... ... ... ... ... ... ... ... ...

RIFF 5
|------------------------------------------------------------------|
|------------------------------------------------------------------|
|------------------------------------------------------------------|
|------------------------------------------------------------------|
|-----------------555555555555555533333333753053200000000022222222-|
|-0000000000000000-------------------------------------------------|
  ................................................................

RIFF 6
|------------------------------------------------------------------|
|------------------------------------------------------------------|
|-----------------7---------------5---------------2-------4--------|
|-2---------------7---------------5---------------2-------4--------|
|-2---------------5---------------3---------------0-------2--------|
|-0----------------------------------------------------------------|
Comments