Arcane Roots - Second Breath Chords & Tabs

 

Second Breath Chords & Tabs

Arcane Roots Chords & Tabs

Version: 3 Type: Tab 0 ratings
1 star 2 stars 3 stars 4 stars 5 stars
comments

Second Breath Tab

   
Intro
E|----------------------------------|
B|----------------------------------|
G|--7-7-7-7-7-7-7-7--7-7-7-7-8-8-8--|
D|--7-7-7-7-7-7-7-7--7-7-7-7-7-7-7--|
A|--5-5-5-5-5-5-5-5--5-5-5-5-6-6-6--|
E|----------------------------------|

Verse
E|----------------------------------|
B|----------------------------------|
G|--8-7-7-7-7-7-7-7--7-7-7-7-8-8-8--|
D|--7-7-7-7-7-7-7-7--7-7-7-7-7-7-7--|x2
A|--6-5-5-5-5-5-5-5--5-5-5-5-6-6-6--|
E|----------------------------------|
                                                        PM------     
E|----------------------------------------------------------------|
B|----------------------------------------------------------------|
G|----------------------------------------------------------------|
D|-5-5-5-5-6-6-6-6--5-5-5-6-6-6-6-5-5-5-5-6-6-6-6--5-5-5-5-6-7-8--|
A|-5-5-5-5-5-5-5-5--5-5-5-5-5-5-5-5-5-5-5-5-5-5-5--5-5-5-5-6-7-8--|
E|-3-3-3-3-4-4-4-4--3-3-3-4-4-4-4-3-3-3-3-4-4-4-4--3-3-3-3-4-5-6--|

E|----------------------------------|
B|----------------------------------|
G|--8-7-7-7-7-7-7-7--7-7-7-7-8-8-8--|
D|--7-7-7-7-7-7-7-7--7-7-7-7-7-7-7--|x2
A|--6-5-5-5-5-5-5-5--5-5-5-5-6-6-6--|
E|----------------------------------|

E|----------------------------------------------------------------|
B|----------------------------------------------------------------|
G|----------------------------------------------------------------|
D|-5-5-5-5-6-6-6-6--5-5-5-6-6-6-6-5-5-5-5-6-6-6-6--5-5-5-6-6-6-6--|
A|-5-5-5-5-5-5-5-5--5-5-5-5-5-5-5-5-5-5-5-5-5-5-5--5-5-5-5-5-5-5--|
E|-3-3-3-3-4-4-4-4--3-3-3-4-4-4-4-3-3-3-3-4-4-4-4--3-3-3-4-4-4-4--|

Pre Chorus                                                       NH--
E|----------------------------------|---------------------------------|
B|----------------------------------|---------------------------------|
G|----------------------------------|-----------------------------5-5-|
D|----------------------------------|-----------------------------5-5-|
A|----------------------------------|---------------------------------|
E|--4-3-0-1-3-0-4-3-0-1-3-4-3-0-1-3-|-4-3-0-1-3-0-4-3-0-1-3-4-3-0-----|

Chorus
E|-----------------------------------|    |----------|
B|-----------------------------------|    |----0-----|Feedback into 
G|--7-7---1010--1010--7-7-7-10101010-|    |----0-----|next section
D|--7-7---1010--1010--0-0-0-0-0-0-0--|x4  |----0-----|
A|--5-5---8-8---8-8---x-x-x-x-x-x-x--|    |----0-----|
E|--------------8-8---7-7-7-7-7-7-7--|    |----------|

Pre Chorus                                                       NH--
E|----------------------------------|---------------------------------|
B|----------------------------------|---------------------------------|
G|----------------------------------|-----------------------------5-5-|
D|----------------------------------|-----------------------------5-5-|
A|----------------------------------|---------------------------------|
E|--4-3-0-1-3-0-4-3-0-1-3-4-3-0-1-3-|-4-3-0-1-3-0-4-3-0-1-3-4-3-0-----|

Chorus
E|-----------------------------------|    
B|-----------------------------------|    
G|--7-7---1010--1010--7-7-7-10101010-|    
D|--7-7---1010--------0-0-0-0-0-0-0--|x4  
A|--5-5---8-8---1010--x-x-x-x-x-x-x--|    
E|--------------8-8---7-7-7-7-7-7-7--| 

E|------------------------------------|
B|------------------------------------|
G|-7-------------6--------------------|
D|-8-------------7--------------------|
A|-8-------------7--------------------|
E|-6-------------5--------------------|

Break
E|-----------------------------------------------------------------------|
B|-----------------------------------------------------------------------|
G|---------------------------8-------------------------------------------|
D|-----------------------------------------------------------------------|x2
A|--5---5--6-5--5-6b---5--5----5-6b---5---5--6-5--5-6b-------------------|
E|------------------------------------------------------4-3-1-0-3-4-0-1--|

E|-----------------------------------|
B|-----------------------------------|
G|-----------------------------------|
D|---------4----------------4--------|x2
A|-----------------------------------|
E|--1---1-----1-2b----1--1-----1-2b--|

E|----------------------------------------------------------------------|
B|----------------------------------------------------------------------|
G|----------------------------------------------------------------------|
D|---------4----------------4-----------------4----------------4--------|
A|----------------------------------------------------------------------|
E|--1---------1-2b----1--1-----1-2b----1---------1-2b----1--1-----1-2b--|
[ Tab from: http://www.guitartabs.cc/tabs/a/arcane_roots/second_breath_tab_ver_3.html ]
Middle Section
E|-------------------------------------------------------------|
B|--6----------------------------6--6------6-----6------6------|
G|--7-----------------------9---------7------7-----7------7----|
D|--7-----------------------------------7------7-----7------7--|
A|--5----------------------------------------------------------|
E|--------------------------8----7-----------------------------|


Clean Guitar
E|----------------------------------------------------------------------|
B|-----6------6----------------------8-----------6-----6-----6-----6----|
G|-------7------7--------12------------9-----------7-----7-----7-----7--|
D|--0-----------------------14------------------------------------------|
A|----------------------------------------------------------------------|
E|--------------------13-------------8-------7--------------------------|

E|------------------------------------------------------------------------|
B|-----6------6------------------------------------6-----6-----6-----6----|
G|-------7------7--------12-------14----12-----------7-----7-----7-----7--|
D|--0-----------------------14-------14----14-----------------------------|
A|------------------------------------------------------------------------|
E|--------------------13-------------------------7------------------------|

Palm muted strumming 

E|-------------------------------|
B|-------------------------------|
G|---7-----10----10----7---------|
D|---7-----10----10----0---------|
A|---5-----8-----8-----x---------|
E|---------------8-----7---------|

Heavy Bit
E|---------------------------------|---------------------------------|
B|---------------------------------|---------------------------------|
G|-7-7-7-7-7-7-7-7-6-6-6-6-6-6-6-6-|-7-7-7-7-7-7-7-7-6-6-6-6-6-6-6-6-|
D|-7-7-7-7-7-7-7-7-7-7-7-7-7-7-7-7-|-8-8-8-8-8-8-8-8-8-8-8-8-8-8-8-8-|
A|-5-5-5-5-5-5-5-5-5-5-5-5-5-5-5-5-|-8-8-8-8-8-8-8-8-8-8-8-8-8-8-8-8-|
E|---------------------------------|-6-6-6-6-6-6-6-6-6-6-6-6-6-6-6-6-|

E|---------------------------------|---------------------------------|
B|---------------------------------|---------------------------------|
G|-----------------6-6-6-6-6-6-6-6-|-2-2-2-2-2-2-2-2-6-6-6-6-6-6-6-6-|
D|-5-5-5-5-5-5-5-5-5-5-5-5-5-5-5-5-|-3-3-3-3-3-3-3-3-7-7-7-7-7-7-7-7-|x2
A|-5-5-5-5-5-5-5-5-5-5-5-5-5-5-5-5-|-3-3-3-3-3-3-3-3-7-7-7-7-7-7-7-7-|
E|-3-3-3-3-3-3-3-3-3-3-3-3-3-3-3-3-|-1-1-1-1-1-1-1-1-5-5-5-5-5-5-5-5-|

E|---------------------------------|---------------------------------|
B|---------------------------------|---------------------------------|
G|-7-7-7-7-9-9-9-9-6-6-6-6-7-7-7-7-|-7-7-7-7-9-9-9-9-6-6-6-6-7-7-7-7-|
D|-7-7-7-7-7-7-7-7-7-7-7-7-7-7-7-7-|-8-8-8-8-8-8-8-8-8-8-8-8-8-8-8-8-|
A|-5-5-5-5-5-5-5-5-5-5-5-5-5-5-5-5-|-8-8-8-8-8-8-8-8-8-8-8-8-8-8-8-8-|
E|---------------------------------|-6-6-6-6-6-6-6-6-6-6-6-6-6-6-6-6-|

E|---------------------------------|---------------------------------|
B|-3-3-3-3-5-5-5-5-2-2-2-2-3-3-3-3-|---------------------------------|
G|-0-0-0-0-0-0-0-0-0-0-0-0-0-0-0-0-|-2-2-2-2-2-2-2-2-6-6-6-6-6-6-6-6-|
D|-0-0-0-0-0-0-0-0-0-0-0-0-0-0-0-0-|-3-3-3-3-3-3-3-3-7-7-7-7-7-7-7-7-|x2
A|---------------------------------|-3-3-3-3-3-3-3-3-7-7-7-7-7-7-7-7-|
E|-3-3-3-3-3-3-3-3-3-3-3-3-3-3-3-3-|-1-1-1-1-1-1-1-1-5-5-5-5-5-5-5-5-|


E|----------------------------------------|
B|----------------------------------------|
G|---7--------9--------10--------12-------|
D|---x--------x--------x---------x--------|
A|---5--------7--------8---------10-------|
E|---6--------8--------10--------8--------|

E|----------------------------------|---------------------------------------|
B|----------------------------------|---------------------------------------|
G|--7-------------------------------|---------------------------------------|
D|--x-------------------------------|--12-----15----------------------------|
A|--5-------------------------------|--12-----15----------------------------|
E|--6-------6--5--3--1--5--3--1--9--|--10-----13----6--5--3--1--5--3--1--9--|

E|---------------------------------------|    |-------------------------|
B|---------------------------------------|    |-------------------------|
G|---------------------------------------|    |---------------12----14--|
D|--12-----15----------------------------|    |--12-----15----12----11--|
A|--12-----15----------------------------|x2  |--12-----15----10----12--|
E|--10-----13----6--5--3--1--5--3--1--9--|    |--10-----13--------------|


Outro
E|--------------------------------------------|
B|--------------------------------------------|
G|----------7-----7--------------1010101010---|
D|--12------0-----0-------5-5-----------------|x3
A|--12------x-----x-------5-5----8-8-8-8-8----|
E|--10------6-----7-------3-3-----------------|

E|-------------------------|
B|-------------------------|
G|----------7-----7--------|
D|--12------0-----0--------|
A|--12------x-----x--------|
E|--10------6-----7--------|

I've done a cover of this tab if you are interested:
http://www.youtube.com/watch?v=wVHb_6zrWY4&feature=youtu.be

It's not 100% but it gets you through the song and is close enough to sound good with the track. 
Comments