Arcade Fire - Une Anee Sans Lumiere Chords & Tabs

 

Une Anee Sans Lumiere Chords & Tabs

Arcade Fire Chords & Tabs

Version: 1 Type: Tab 0 ratings
1 star 2 stars 3 stars 4 stars 5 stars
comments

Une Anee Sans Lumiere Tab

-----------------------------------------------------------------------------
Une Anee Sans Lumiere - Arcade Fire
-----------------------------------------------------------------------------
Tabbed by: Erol Sabadosh

Capo on 7th fret (Win detunes the guitar somehow but you can still play with the capo)

e|-------------------------------------0-------------------------------------|
B|---0----------------0------------------0-----------------------------------|
G|-----0----------------0-------------------------------2--------------------|
D|--------------------------------------------------------0------------------|
A|--------2-0-2-0-2--------2-0-2-0-2--------2-0-2-0-2--------2-0-2-0-2-------|
E|---------------------------------------------------------------------------|

e|---------------------------------------------------------------------------|
B|-------------------0-------------------------------------------------------|
G|---0-------3---------0-----------------------------------------------------|
D|-----3-0-----3-0-----------------------------------------------------------|
A|------------------------3-0-3-0-3------------------------------------------|
E|---------------------------------------------------------------------------|

The order of the above and the number of times each little bit is played varies so it's 
to you to listen to the track and get it, it's not too difficult if you know the vocals.

Here's the chorus: (Hey, your old man should know...)
[ Tab from: http://www.guitartabs.cc/tabs/a/arcade_fire/une_anee_sans_lumiere_tab.html ]
e|---------------------------------------------------------------------------|
B|--0---------------3---------------1----------------1-----------------------|
G|----0---------------0---------------0----------------0---------------------|
D|---------------------------------------------------------------------------|
A|-------2-0-2-0-2-------2-0-2-0-2-------2-0-2-0-2--------2-0-2-0-2----------|
E|---------------------------------------------------------------------------|

e|---------------------------------------------------------------------------|
B|--0--------------------------------------0---------------------------------|
G|----0--------------3-----2-----------------0-------------------------------|
D|---------------------------------------------------------------------------|
A|-------2-0-2-0-2------------------------------2-0-2-0-2--------------------|
E|---------------------------------------------------------------------------|

This is just before shift at the end (remember, this is with the capo still on)

e|---------------------------------------------------------------------------|
B|--8-\-3---4--3------3----8-\-3---4--3-----------------8-\-3----5---5-------|
G|----------------4h5-------------------5--4----5----------------------------|
D|---------------------------------------------------------------------------|
A|---------------------------------------------------------------------------|
E|---------------------------------------------------------------------------|
Comments