Arcade Fire - Rebellion (lies) Chords & Tabs

 

Rebellion (lies) Chords & Tabs

Arcade Fire Chords & Tabs

Version: 2 Type: Tab 0 ratings
1 star 2 stars 3 stars 4 stars 5 stars
comments

Rebellion (lies) Tab

   
ARCADE FIRE
REBELLION (LIES)

(Note: This version is meant to be played fingerstyle. Think of it like Win Butler
playing a solo acoustic unplugged version. Once again, I'd like to thank those who
posted the other versions of this song on this site as I relied on those to produce
this. Enjoy!)

 -Steve


(INTRO)
  Bb              Eb              Bb              Gm
E-------------------------------------------------------------------------|
B-------------------------------------------------------------------------|
G-------------------------------------------------------------------------|
D-------------------------------------------------5-5-5-5-5-5-5-5---------|
A-----------------6-6-6-6-6-6-6-6-----------------------------------------|
E-6-6-6-6-6-6-6-6-----------------6-6-6-6-6-6-6-6-------------------------|

E-6-6-6-6-6-6-6-6-6-6-6-6-6-6-6-6-6-6-6-6-6-6-6-6-6-6-6-6-6-6-6-----------|
B-------------------------------------------------------------------------|
G-------------------------------------------------------------------------|
D-------------------------------------------------5---5---5---5-----------|
A-----------------6---6---6---6-------------------------------------------|
E-6---6---6---6-------------------6---6---6---6---------------------------|


(VERSE)

  Sleeping is ...                 No matter what ...
  Bb              Eb              Bb              Gm
E-----------------6-6-6-6-6-6-6-6-----------------6-6-6-6-6-6-6-6---------|
B-------------------------------------------------------------------------|
G-5-5-7---5-5-7-------------------5-5-7-7-5-------------------------------|
D---------------------------------------------8---5---5---5---5-----------|
A-----------------6---6---6---6-------------------------------------------|
E-6---6---6---6-------------------6---6---6---6---------------------------|


(BRIDGE 1)

E-------------------------6-------------------------------6---------------|
B-6-----------6---8---------------6-----------6---8-----------------------|
G------------------------------------7------------------------------------|
D-------------------------------------------------5-5-5-5-5-5-5-5---------|
A-----------------6-6-6-6-6-6-6-6-----------------------------------------|
E-6-6-6-6-6-6-6-6-----------------6-6-6-6-6-6-6-6-------------------------|

E-10----------------------6-------------------------------6---------------|
B-------------6---8---------------6-----------6---8-----------------------|
G------------------------------------7------------------------------------|
D-------------------------------------------------5-5-5-5-5-5-5-5---------|
A-----------------6-6-6-6-6-6-6-6-----------------------------------------|
E-6-6-6-6-6-6-6-6-----------------6-6-6-6-6-6-6-6-------------------------|


(CHORUS 1)
[ Tab from: http://www.guitartabs.cc/tabs/a/arcade_fire/rebellion_lies_tab_ver_2.html ]
  Everytime ...   Lies!   Lies!   Everytime ...   Lies!   Lies!
  Bb              Eb              Bb              Eb
E-----------------6-------6-----------------------6-------6---------------|
B---------------------8-6-----8-----------------------8-6-----8-----------|
G-5-5-7-7-5-5-7-------------------5-5-7-7-5-5-7---------------------------|
D-------------------------------------------------------------------------|
A-----------------6---6---6---6-------------------6---6---6---6-----------|
E-6---6---6---6-------------------6---6---6---6---------------------------|


(CHORUS 2 - In the Key of Db)

  Everytime ...                   Everytime ...
  Bbm             Gb              Db              Ab
E-------------------------------------------------------------------------|
B---------------------------------2-2-4-4-2-2-4---------------------------|
G-6-6-8-8-6-6-8-----------------------------------------------------------|
D-----------------4-4-4-4-4-4-4-4-----------------6-6-6-6-6-6-6-6---------|
A---------------------------------4---4---4---4---------------------------|
E-6---6---6---6---2---2---2---2-------------------4---4---4---4-----------|


 (BRIDGE 2)
E-------------------------6-------------------------------6---------------|
B-6-----------6---8---------------6-----------6---8-----------------------|
G------------------------------------7------------------------------------|
D-------------------------------------------------5-5-5-5-5-5-5-5---------|
A-----------------6-6-6-6-6-6-6-6-----------------------------------------|
E-6-6-6-6-6-6-6-6-----------------6-6-6-6-6-6-6-6-------------------------|


 (VARIATION ON VERSE - Come on hide your lovers underneath the covers)

E-------------------------------------------------------------------------|
B-------------------------------------------------------------------------|
G-5-5-5-5-5-7-----5-5-5-7-5-----------------------------------------------|
D---------------------------8---------------------------------------------|
A-----------------6---6---6---6-------------------------------------------|
E-6---6---6---6-----------------------------------------------------------|


(CHORUS 2a - In the Key of Db)

  Everytime ...   (Lies!)         Everytime ...   (Lies!)
  Bbm             Gb              Db              Ab
E-----------------9-------9-----------------------9-------9---------------|
B---------------------11-9----11--2-2-4-4-2-2-4-------11-9----11----------|
G-6-6-8-8-6-6-8-----------------------------------------------------------|
D-------------------------------------------------------------------------|
A-----------------9---9---9---9---4---4---4---4---11--11--11--11----------|
E-6---6---6---6-----------------------------------------------------------|


 (OUTRO - In the Key of Db)

E-6-----------6---------------8---9-----------9---8---6-------------------|
B-----------------11--9---11--------------9---------------9---7-----------|
G-------------------------------------------------------------------------|
D-------------------------------------------------6---6---6---6-----------|
A-----------------9---9---9---9-------------------------------------------|
E-6---6---6---6-------------------9---9---9---9---------------------------|

E-------------6---4---2---------------------------------------------------|
B-6-----------------------2---4---6-----------7---6---4-------------------|
G---------------------------------------------------------6---5---3-------|
D-----------------4---4---4---4-------------------------------------------|
A---------------------------------4---4---4---4-------------------1-------|
E-6---6---6---6-----------------------------------4---4---4---4-----------|
Comments