Arcade Fire - Rebellion (lies) Chords & Tabs

 

Rebellion (lies) Chords & Tabs

Arcade Fire Chords & Tabs

Version: 1 Type: Tab 0 ratings
1 star 2 stars 3 stars 4 stars 5 stars
comments

Rebellion (lies) Tab

   
Song - Rebellion (Lies)
Artist - The Arcade Fire
Album - Funeral

tabbed by: (gthomas1@mail.brookdalecc.edu)

All Guitars have Capo on 1st Fret, **all chords and notes relative to capo**
I recommend up down strokes for intro/verse and all downstrokes for chorus and ending.

Bass (w/o capo):

g---------------------------------------------------------------------------------------|
d---------------------------------------------------------------------------------------|
a-1111111/66666666\11111111/10-10-10-10-10-10-10-10-------------------------------------|
E---------------------------------------------------------------------------------------|

Chords:

   A  D  F#m  Am  F   C   G  G/B

e--0--2--2----0---1---0---3--3----------------------------------------------------------|
b--2--3--2----1---1---1---0--0----------------------------------------------------------|
g--2--2--2----2---2---0---0--0----------------------------------------------------------|
d--2--0--4----2---3---2---0--0----------------------------------------------------------|
a--0--0--4----0---3---3---2--2----------------------------------------------------------|
E--------2--------1-------3-------------------------------------------------------------|

This is played in the intro each time the A chord is played

e----5----------------------------------------------------------------------------------|
b--5------------------------------------------------------------------------------------|
g---------------------------------------------------------------------------------------|
d---------------------------------------------------------------------------------------|
a---------------------------------------------------------------------------------------|
E---------------------------------------------------------------------------------------|

Piano arr. for guitar

e--9--9--9--9--9--9--9--9--9--9---------------------------------------------------------|
b--10-10-10-10-10-10-10-10-10-10--------------------------------------------------------|
g--9--9--9--9--9--9--9--9--9--9---------------------------------------------------------|
d---------------------------------------------------------------------------------------|
a---------------------------------------------------------------------------------------|
E---------------------------------------------------------------------------------------|

Violin Fill during verse
[ Tab from: http://www.guitartabs.cc/tabs/a/arcade_fire/rebellion_lies_tab.html ]
e--0---2---0---2--5/9----0---2---0---2--5/9---------------------------------------------|
b---------------------------------------------------------------------------------------|
g---------------------------------------------------------------------------------------|
d---------------------------------------------------------------------------------------|
a---------------------------------------------------------------------------------------|
E---------------------------------------------------------------------------------------|

Violin Fill during ending

e--3--5--3-5-7-8---3-8-7-5-3-1-0--0-/5-3-1----------------------|
b-----------------------------------------1-3-5--5-6-5-3-1-0----|
g------------------------------------------------------------2--|
d---------------------------------------------------------------|
a---------------------------------------------------------------|
E---------------------------------------------------------------|

Verse/intro

A                    D    A			F#m

Sleeping in is giving in, no matter what the time is
Sleeping in is giving in, so lift those heavy eyelids
People say that you'll die faster than without water
But we know it's just a lie, scare your son, scare your daughter

A                    D    A			F#m

People say that your dreams are the only things that save ya
Come on baby, in our dreams, we can live our misbehavior

Chorus

A                             D

Everytime you close your eyes (Lies! Lies!) [4x]

Am         F          C           G

Am         F          C           G/B

Everytime you close your eyes [4x]

Verse

A                    D    A			F#m

People try and hide the night underneath the covers
People try and hide the light underneath the covers
Come on hide your lovers underneath the covers
Come on hide your lovers underneath the covers
Hidin' from your brothers underneath the covers
Come on hide your lovers underneath the covers

People say that you'll die faster than without water
But we know it's just a lie, scare your son, scare your daughter
scare your son, scare your daughter
scare your son, scare your daughter
scare your son, scare your daughter

Chorus

A                             D

Now here's the sun, it's alright! (Lies! Lies!)
Now here's the moon, it's alright! (Lies! Lies!)
Now here's the sun, it's alright! (Lies! Lies!)
Now here's the moon, it's alright! (Lies! Lies!)

Am      F        C        G

But everytime you close your eyes. (Lies! Lies!)
Everytime you close your eyes (Lies! Lies!)

Ending

Am      F        C        G

Everytime you close your eyes

7 times then

Am      F        C        G/B

end on Am
Comments