Arcade Fire - No Cars Go Chords & Tabs

 

No Cars Go Chords & Tabs

Arcade Fire Chords & Tabs

Version: 1 Type: Tab 0 ratings
1 star 2 stars 3 stars 4 stars 5 stars
comments

No Cars Go Tab

   
ARCADE FIRE
NO CARS GO


  -Steve (steveseligman@hotmail.com)


(Main riff, Regine plays this on the accordian. It is also the melody for some of the words.)

    Fm          Ab          Db(maj7)
    |  |  |  |  |  |  |  |  |  |  |  |
E------------1-----------------------------------------------------------|
B---------------4--------2--1--------------------------------------------|
G---------1-----5-----1-----1--------------------------------------------|
D---3-----------6-----------3--------------------------------------------|
A---3-----------------------4--------------------------------------------|
E---1-----------4--------------------------------------------------------|


   Hey ........ No cars go
[ Tab from: http://www.guitartabs.cc/tabs/a/arcade_fire/no_cars_go_tab.html ]
   Db                   Ab
E------------------------------------------------------------------------|
B--1------------1--------------------------------------------------------|
G--1--------------------1------------------------------------------------|
D--3---------------3----1------------------------------------------------|
A--4--------------------3------------------------------------------------|
E-----------------------4------------------------------------------------|


  (At around 2:30, the bass plays something like this, 4 times)

E------------------------------------------------------------------------|
B------------------------------------------------------------------------|
G------------------------------------------------------------------------|
D------------------------------------------------------------------------|
A-------------------4----------------------------------------------------|
E----6--4--6--4----------------------------------------------------------|


  (At around 3:20, a keyboard/synth plays something like this)

E------------------------------------------------------------------------|
B-----------------------------------------1-------1----------------------|
G----0-1-0---0-1-0---0-1--------------0-1-----0-1-----0-1----------------|
D------------------------3--------------------------------3--------------|
A------------------------------------------------------------------------|
E------------------------------------------------------------------------|
Comments