Arcade Fire - Haiti Chords & Tabs

 

Haiti Chords & Tabs

Arcade Fire Chords & Tabs

Version: 1 Type: Tab 0 ratings
1 star 2 stars 3 stars 4 stars 5 stars
comments

Haiti Tab

-------------------------------------------------------------------------------
			     Haiti - The Arcade Fire                     
-------------------------------------------------------------------------------
Tabbed by: cj
Email: lameowashisnameo@yahoo.com

Tuning: Standard

I couldn't find it anywhere, so I tried to figure it out myself. listen to get
strumming. this is practically the whole song.
[ Tab from: http://www.guitartabs.cc/tabs/a/arcade_fire/haiti_tab.html ]
e|----3333333-3-3--0000000-0-0-----------------------------------------------|
B|----3333333-3-3--0000000-0-0-----------------------------------------------|
G|----4444444-4-4--0000000-0-0-----------------------------------------------|
D|----5555555-5-5--2222222-2-2-----------------------------------------------|
A|----5555555-5-5--2222222-2-2-----------------------------------------------|
E|----3333333-3-3--0000000-0-0-----------------------------------------------|


e|-----10-10-10-10--------------------10-------------------------------------|
B|-----------------12-10-12--12-10-12----12-10-8-----------------------------|
G|---------------------------------------------------------------------------|
D|---------------------------------------------------------------------------|
A|---------------------------------------------------------------------------|
E|---------------------------------------------------------------------------|
Comments